ISO-10303-21;
HEADER;
FILE_DESCRIPTION (( 'STEP AP203' ),
    '1' );
FILE_NAME ('4926-E0W.STEP',
    '2015-07-13T15:20:44',
    ( 'admin' ),
    ( '' ),
    'SwSTEP 2.0',
    'SolidWorks 2014',
    '' );
FILE_SCHEMA (( 'CONFIG_CONTROL_DESIGN' ));
ENDSEC;

DATA;
#1 = PERSON_AND_ORGANIZATION ( #323, #131 ) ;
#2 = CARTESIAN_POINT ( 'NONE',  ( 0.0000000000000000000, 0.0000000000000000000, -1.630162503412430700 ) ) ;
#3 = EDGE_CURVE ( 'NONE', #224, #229, #313, .T. ) ;
#4 = PERSON_AND_ORGANIZATION_ROLE ( 'creator' ) ;
#5 = CARTESIAN_POINT ( 'NONE',  ( 0.0000000000000000000, 0.0000000000000000000, -1.859159486603940300 ) ) ;
#6 = EDGE_LOOP ( 'NONE', ( #182, #237, #270, #275, #196 ) ) ;
#7 = CC_DESIGN_PERSON_AND_ORGANIZATION_ASSIGNMENT ( #200, #261, ( #293 ) ) ;
#8 = DIRECTION ( 'NONE',  ( 1.000000000000000000, -1.224646799147353200E-016, 0.0000000000000000000 ) ) ;
#9 = EDGE_LOOP ( 'NONE', ( #147, #258, #254, #227 ) ) ;
#10 = PERSON_AND_ORGANIZATION ( #323, #131 ) ;
#11 = CIRCLE ( 'NONE', #290, 47.60000000000004400 ) ;
#12 = APPROVAL_DATE_TIME ( #82, #309 ) ;
#13 = DIRECTION ( 'NONE',  ( 0.0000000000000000000, 0.0000000000000000000, -1.000000000000000000 ) ) ;
#14 = ORIENTED_EDGE ( 'NONE', *, *, #325, .F. ) ;
#15 = DATE_AND_TIME ( #60, #96 ) ;
#16 = SPHERICAL_SURFACE ( 'NONE', #78, 149.8000000000000100 ) ;
#17 = CARTESIAN_POINT ( 'NONE',  ( 12.45971450914574800, 1.525874949191517500E-015, 0.1995068334686954400 ) ) ;
#18 = DIRECTION ( 'NONE',  ( 0.0000000000000000000, -1.000000000000000000, 0.0000000000000000000 ) ) ;
#19 = ORIENTED_EDGE ( 'NONE', *, *, #195, .T. ) ;
#20 = AXIS2_PLACEMENT_3D ( 'NONE', #314, #349, #129 ) ;
#21 = CIRCLE ( 'NONE', #221, 12.45971450914575800 ) ;
#22 = EDGE_CURVE ( 'NONE', #229, #30, #91, .T. ) ;
#23 = EDGE_CURVE ( 'NONE', #271, #56, #357, .T. ) ;
#24 = VERTEX_POINT ( 'NONE', #125 ) ;
#25 = CLOSED_SHELL ( 'NONE', ( #116, #206, #114, #361, #161, #64, #166, #334, #305, #297 ) ) ;
#26 = ORIENTED_EDGE ( 'NONE', *, *, #22, .F. ) ;
#27 = AXIS2_PLACEMENT_3D ( 'NONE', #5, #263, #286 ) ;
#28 = SECURITY_CLASSIFICATION ( '', '', #94 ) ;
#29 = ORIENTED_EDGE ( 'NONE', *, *, #115, .F. ) ;
#30 = VERTEX_POINT ( 'NONE', #265 ) ;
#31 = ORIENTED_EDGE ( 'NONE', *, *, #46, .T. ) ;
#32 = DIRECTION ( 'NONE',  ( -0.6054722443311958400, 0.0000000000000000000, -0.7958664217973670000 ) ) ;
#33 = FACE_OUTER_BOUND ( 'NONE', #223, .T. ) ;
#34 = DIRECTION ( 'NONE',  ( 0.0000000000000000000, 0.0000000000000000000, 1.000000000000000000 ) ) ;
#35 = CARTESIAN_POINT ( 'NONE',  ( 0.0000000000000000000, 0.0000000000000000000, -151.1408405133960900 ) ) ;
#36 = DIRECTION ( 'NONE',  ( -0.0000000000000000000, -0.0000000000000000000, 1.000000000000000000 ) ) ;
#37 = EDGE_LOOP ( 'NONE', ( #29, #245, #107, #198 ) ) ;
#38 = ORIENTED_EDGE ( 'NONE', *, *, #45, .T. ) ;
#39 = CARTESIAN_POINT ( 'NONE',  ( -12.45069113804953000, 1.540035669927802900E-015, -1.859159486603940300 ) ) ;
#40 = APPROVAL_STATUS ( 'not_yet_approved' ) ;
#41 = CIRCLE ( 'NONE', #123, 12.69999999999999900 ) ;
#42 = AXIS2_PLACEMENT_3D ( 'NONE', #155, #351, #189 ) ;
#43 = EDGE_LOOP ( 'NONE', ( #31, #179, #266, #321 ) ) ;
#44 = ORIENTED_EDGE ( 'NONE', *, *, #99, .F. ) ;
#45 = EDGE_CURVE ( 'NONE', #56, #130, #327, .T. ) ;
#46 = EDGE_CURVE ( 'NONE', #77, #181, #190, .T. ) ;
#47 = DIRECTION ( 'NONE',  ( 0.0000000000000000000, -1.000000000000000000, 0.0000000000000000000 ) ) ;
#48 = COORDINATED_UNIVERSAL_TIME_OFFSET ( 5, 0, .BEHIND. ) ;
#49 = CARTESIAN_POINT ( 'NONE',  ( 0.0000000000000000000, 0.0000000000000000000, -1.630162503412430500 ) ) ;
#50 = ORIENTED_EDGE ( 'NONE', *, *, #46, .F. ) ;
#51 = AXIS2_PLACEMENT_3D ( 'NONE', #213, #8, #342 ) ;
#52 = CARTESIAN_POINT ( 'NONE',  ( -1.525874949191520300E-015, -12.45971450914577100, 0.1995068334686798100 ) ) ;
#53 = CALENDAR_DATE ( 2015, 13, 7 ) ;
#54 = CC_DESIGN_PERSON_AND_ORGANIZATION_ASSIGNMENT ( #1, #289, ( #28 ) ) ;
#55 = CIRCLE ( 'NONE', #140, 12.45069113804953000 ) ;
#56 = VERTEX_POINT ( 'NONE', #158 ) ;
#57 = AXIS2_PLACEMENT_3D ( 'NONE', #294, #134, #316 ) ;
#58 = EDGE_CURVE ( 'NONE', #241, #30, #111, .T. ) ;
#59 = EDGE_CURVE ( 'NONE', #24, #248, #41, .T. ) ;
#60 = CALENDAR_DATE ( 2015, 13, 7 ) ;
#61 = ORIENTED_EDGE ( 'NONE', *, *, #217, .T. ) ;
#62 = CARTESIAN_POINT ( 'NONE',  ( 0.0000000000000000000, 0.0000000000000000000, -151.1408405133960900 ) ) ;
#63 = DIRECTION ( 'NONE',  ( -0.0000000000000000000, -0.0000000000000000000, 1.000000000000000000 ) ) ;
#64 = ADVANCED_FACE ( 'NONE', ( #319 ), #244, .T. ) ;
#65 = APPROVAL_PERSON_ORGANIZATION ( #277, #309, #235 ) ;
#66 = DIRECTION ( 'NONE',  ( 1.000000000000000000, 0.0000000000000000000, 0.0000000000000000000 ) ) ;
#67 = AXIS2_PLACEMENT_3D ( 'NONE', #89, #282, #118 ) ;
#68 = PERSON_AND_ORGANIZATION_ROLE ( 'creator' ) ;
#69 = LINE ( 'NONE', #100, #232 ) ;
#70 = CC_DESIGN_DATE_AND_TIME_ASSIGNMENT ( #15, #124, ( #28 ) ) ;
#71 = ORIENTED_EDGE ( 'NONE', *, *, #80, .T. ) ;
#72 = SHAPE_DEFINITION_REPRESENTATION ( #295, #274 ) ;
#73 = DIRECTION ( 'NONE',  ( 1.000000000000000000, 0.0000000000000000000, 0.0000000000000000000 ) ) ;
#74 = COORDINATED_UNIVERSAL_TIME_OFFSET ( 5, 0, .BEHIND. ) ;
#75 = CARTESIAN_POINT ( 'NONE',  ( 12.45971450914575800, 1.540588192054328700E-015, 0.1995068334686815600 ) ) ;
#76 = EDGE_LOOP ( 'NONE', ( #38, #138, #180, #355 ) ) ;
#77 = VERTEX_POINT ( 'NONE', #207 ) ;
#78 = AXIS2_PLACEMENT_3D ( 'NONE', #315, #219, #18 ) ;
#79 = PERSON_AND_ORGANIZATION ( #323, #131 ) ;
#80 = EDGE_CURVE ( 'NONE', #181, #24, #251, .T. ) ;
#81 = EDGE_CURVE ( 'NONE', #224, #130, #163, .T. ) ;
#82 = DATE_AND_TIME ( #53, #164 ) ;
#83 = DATE_AND_TIME ( #268, #136 ) ;
#84 = EDGE_LOOP ( 'NONE', ( #328, #44, #281, #160, #194 ) ) ;
#85 = AXIS2_PLACEMENT_3D ( 'NONE', #332, #167, #363 ) ;
#86 = APPROVAL ( #308, 'UNSPECIFIED' ) ;
#87 = LINE ( 'NONE', #17, #212 ) ;
#88 = CONICAL_SURFACE ( 'NONE', #360, 12.45971450914574800, 0.6503591049373672600 ) ;
#89 = CARTESIAN_POINT ( 'NONE',  ( 0.0000000000000000000, 0.0000000000000000000, -1.630162503412430500 ) ) ;
#90 = DIRECTION ( 'NONE',  ( 0.0000000000000000000, 0.0000000000000000000, 1.000000000000000000 ) ) ;
#91 = CIRCLE ( 'NONE', #51, 149.8000000000000100 ) ;
#92 = DIRECTION ( 'NONE',  ( -1.000000000000000000, 1.224646799147353200E-016, 0.0000000000000000000 ) ) ;
#93 = DIRECTION ( 'NONE',  ( 1.000000000000000000, 0.0000000000000000000, 0.0000000000000000000 ) ) ;
#94 = SECURITY_CLASSIFICATION_LEVEL ( 'unclassified' ) ;
#95 = ORIENTED_EDGE ( 'NONE', *, *, #217, .F. ) ;
#96 = LOCAL_TIME ( 11, 20, 44.00000000000000000, #48 ) ;
#97 = AXIS2_PLACEMENT_3D ( 'NONE', #191, #150, #205 ) ;
#98 = COORDINATED_UNIVERSAL_TIME_OFFSET ( 5, 0, .BEHIND. ) ;
#99 = EDGE_CURVE ( 'NONE', #241, #224, #55, .T. ) ;
#100 = CARTESIAN_POINT ( 'NONE',  ( -12.69999999999999900, 1.555301434917138400E-015, 1.859159486603943100 ) ) ;
#101 = DATE_AND_TIME ( #192, #108 ) ;
#102 = CARTESIAN_POINT ( 'NONE',  ( 12.45069113804953000, 0.0000000000000000000, -1.859159486603940300 ) ) ;
#103 = AXIS2_PLACEMENT_3D ( 'NONE', #62, #255, #90 ) ;
#104 = DIRECTION ( 'NONE',  ( -0.0000000000000000000, -0.0000000000000000000, 1.000000000000000000 ) ) ;
#105 = CC_DESIGN_APPROVAL ( #86, ( #28 ) ) ;
#106 = DATE_AND_TIME ( #320, #193 ) ;
#107 = ORIENTED_EDGE ( 'NONE', *, *, #137, .T. ) ;
#108 = LOCAL_TIME ( 11, 20, 44.00000000000000000, #98 ) ;
#109 = APPROVAL_PERSON_ORGANIZATION ( #220, #86, #151 ) ;
#110 = CONICAL_SURFACE ( 'NONE', #273, 12.69999999999999900, 0.8278389616937266200 ) ;
#111 = CIRCLE ( 'NONE', #103, 149.8000000000000100 ) ;
#112 = PERSON_AND_ORGANIZATION ( #323, #131 ) ;
#113 =( GEOMETRIC_REPRESENTATION_CONTEXT ( 3 ) GLOBAL_UNCERTAINTY_ASSIGNED_CONTEXT ( ( #356 ) ) GLOBAL_UNIT_ASSIGNED_CONTEXT ( ( #173, #367, #208 ) ) REPRESENTATION_CONTEXT ( 'NONE', 'WORKASPACE' ) );
#114 = ADVANCED_FACE ( 'NONE', ( #139 ), #352, .F. ) ;
#115 = EDGE_CURVE ( 'NONE', #130, #24, #69, .T. ) ;
#116 = ADVANCED_FACE ( 'NONE', ( #33 ), #250, .T. ) ;
#117 = FACE_OUTER_BOUND ( 'NONE', #76, .T. ) ;
#118 = DIRECTION ( 'NONE',  ( 1.000000000000000000, 0.0000000000000000000, 0.0000000000000000000 ) ) ;
#119 = FACE_OUTER_BOUND ( 'NONE', #6, .T. ) ;
#120 = DIRECTION ( 'NONE',  ( -0.7364712167746215700, 9.019171182871968000E-017, 0.6764688809269118200 ) ) ;
#121 = CARTESIAN_POINT ( 'NONE',  ( 0.0000000000000000000, 0.0000000000000000000, 1.859159486603943100 ) ) ;
#122 = PERSON_AND_ORGANIZATION_ROLE ( 'design_owner' ) ;
#123 = AXIS2_PLACEMENT_3D ( 'NONE', #302, #144, #335 ) ;
#124 = DATE_TIME_ROLE ( 'classification_date' ) ;
#125 = CARTESIAN_POINT ( 'NONE',  ( -12.69999999999999900, 1.555301434917138400E-015, -0.1163377912956236300 ) ) ;
#126 = CC_DESIGN_SECURITY_CLASSIFICATION ( #28, ( #293 ) ) ;
#127 = APPROVAL_PERSON_ORGANIZATION ( #79, #226, #176 ) ;
#128 = ORIENTED_EDGE ( 'NONE', *, *, #59, .F. ) ;
#129 = DIRECTION ( 'NONE',  ( 1.000000000000000000, 0.0000000000000000000, 0.0000000000000000000 ) ) ;
#130 = VERTEX_POINT ( 'NONE', #364 ) ;
#131 = ORGANIZATION ( 'UNSPECIFIED', 'UNSPECIFIED', '' ) ;
#132 = COORDINATED_UNIVERSAL_TIME_OFFSET ( 5, 0, .BEHIND. ) ;
#133 = COORDINATED_UNIVERSAL_TIME_OFFSET ( 5, 0, .BEHIND. ) ;
#134 = DIRECTION ( 'NONE',  ( 0.0000000000000000000, 0.0000000000000000000, -1.000000000000000000 ) ) ;
#135 = AXIS2_PLACEMENT_3D ( 'NONE', #304, #146, #337 ) ;
#136 = LOCAL_TIME ( 11, 20, 44.00000000000000000, #133 ) ;
#137 = EDGE_CURVE ( 'NONE', #56, #248, #341, .T. ) ;
#138 = ORIENTED_EDGE ( 'NONE', *, *, #115, .T. ) ;
#139 = FACE_OUTER_BOUND ( 'NONE', #9, .T. ) ;
#140 = AXIS2_PLACEMENT_3D ( 'NONE', #183, #13, #215 ) ;
#141 = PRODUCT_RELATED_PRODUCT_CATEGORY ( 'detail', '', ( #280 ) ) ;
#142 = CIRCLE ( 'NONE', #97, 12.45069113804953000 ) ;
#143 = DIRECTION ( 'NONE',  ( -1.000000000000000000, 0.0000000000000000000, 0.0000000000000000000 ) ) ;
#144 = DIRECTION ( 'NONE',  ( 0.0000000000000000000, 0.0000000000000000000, -1.000000000000000000 ) ) ;
#145 = DIRECTION ( 'NONE',  ( -0.0000000000000000000, -0.0000000000000000000, 1.000000000000000000 ) ) ;
#146 = DIRECTION ( 'NONE',  ( -0.0000000000000000000, -0.0000000000000000000, 1.000000000000000000 ) ) ;
#147 = ORIENTED_EDGE ( 'NONE', *, *, #99, .T. ) ;
#148 = DIRECTION ( 'NONE',  ( -0.0000000000000000000, -0.0000000000000000000, 1.000000000000000000 ) ) ;
#149 = APPLICATION_PROTOCOL_DEFINITION ( 'international standard', 'config_control_design', 1994, #307 ) ;
#150 = DIRECTION ( 'NONE',  ( 0.0000000000000000000, 0.0000000000000000000, -1.000000000000000000 ) ) ;
#151 = APPROVAL_ROLE ( '' ) ;
#152 = AXIS2_PLACEMENT_3D ( 'NONE', #157, #104, #354 ) ;
#153 = EDGE_CURVE ( 'NONE', #181, #344, #21, .T. ) ;
#154 = DIRECTION ( 'NONE',  ( -1.000000000000000000, 0.0000000000000000000, 0.0000000000000000000 ) ) ;
#155 = CARTESIAN_POINT ( 'NONE',  ( 0.0000000000000000000, 0.0000000000000000000, -0.1163377912956236300 ) ) ;
#156 = AXIS2_PLACEMENT_3D ( 'NONE', #203, #301, #171 ) ;
#157 = CARTESIAN_POINT ( 'NONE',  ( 0.0000000000000000000, 0.0000000000000000000, 1.859159486603943100 ) ) ;
#158 = CARTESIAN_POINT ( 'NONE',  ( 12.69999999999999900, 0.0000000000000000000, -1.630162503412430500 ) ) ;
#159 = AXIS2_PLACEMENT_3D ( 'NONE', #231, #34, #93 ) ;
#160 = ORIENTED_EDGE ( 'NONE', *, *, #23, .T. ) ;
#161 = ADVANCED_FACE ( 'NONE', ( #162 ), #170, .T. ) ;
#162 = FACE_OUTER_BOUND ( 'NONE', #43, .T. ) ;
#163 = LINE ( 'NONE', #256, #264 ) ;
#164 = LOCAL_TIME ( 11, 20, 44.00000000000000000, #74 ) ;
#165 = EDGE_CURVE ( 'NONE', #344, #175, #169, .T. ) ;
#166 = ADVANCED_FACE ( 'NONE', ( #272 ), #243, .T. ) ;
#167 = DIRECTION ( 'NONE',  ( -0.0000000000000000000, -0.0000000000000000000, 1.000000000000000000 ) ) ;
#168 = DIRECTION ( 'NONE',  ( -1.000000000000000000, 0.0000000000000000000, 0.0000000000000000000 ) ) ;
#169 = CIRCLE ( 'NONE', #238, 47.60000000000003700 ) ;
#170 = SPHERICAL_SURFACE ( 'NONE', #249, 47.60000000000003700 ) ;
#171 = DIRECTION ( 'NONE',  ( 0.0000000000000000000, 1.000000000000000000, 0.0000000000000000000 ) ) ;
#172 = DIRECTION ( 'NONE',  ( 0.0000000000000000000, 1.000000000000000000, 0.0000000000000000000 ) ) ;
#173 =( LENGTH_UNIT ( ) NAMED_UNIT ( * ) SI_UNIT ( .MILLI., .METRE. ) );
#174 = CARTESIAN_POINT ( 'NONE',  ( -12.45971450914575800, 0.0000000000000000000, 0.1995068334686815600 ) ) ;
#175 = VERTEX_POINT ( 'NONE', #306 ) ;
#176 = APPROVAL_ROLE ( '' ) ;
#177 = CARTESIAN_POINT ( 'NONE',  ( 0.0000000000000000000, 0.0000000000000000000, 0.1995068334686815600 ) ) ;
#178 = AXIS2_PLACEMENT_3D ( 'NONE', #283, #346, #143 ) ;
#179 = ORIENTED_EDGE ( 'NONE', *, *, #153, .T. ) ;
#180 = ORIENTED_EDGE ( 'NONE', *, *, #59, .T. ) ;
#181 = VERTEX_POINT ( 'NONE', #174 ) ;
#182 = ORIENTED_EDGE ( 'NONE', *, *, #3, .F. ) ;
#183 = CARTESIAN_POINT ( 'NONE',  ( 0.0000000000000000000, 0.0000000000000000000, -1.859159486603940300 ) ) ;
#184 = VECTOR ( 'NONE', #63, 1000.000000000000000 ) ;
#185 = CARTESIAN_POINT ( 'NONE',  ( 0.0000000000000000000, 0.0000000000000000000, 0.1995068334686954400 ) ) ;
#186 = DIRECTION ( 'NONE',  ( 0.6054722443311958400, 7.414896459927631900E-017, -0.7958664217973670000 ) ) ;
#187 = ORIENTED_EDGE ( 'NONE', *, *, #165, .F. ) ;
#188 = CC_DESIGN_PERSON_AND_ORGANIZATION_ASSIGNMENT ( #112, #122, ( #280 ) ) ;
#189 = DIRECTION ( 'NONE',  ( -1.000000000000000000, 0.0000000000000000000, 0.0000000000000000000 ) ) ;
#190 = CIRCLE ( 'NONE', #85, 12.45971450914575800 ) ;
#191 = CARTESIAN_POINT ( 'NONE',  ( 0.0000000000000000000, 0.0000000000000000000, -1.859159486603940300 ) ) ;
#192 = CALENDAR_DATE ( 2015, 13, 7 ) ;
#193 = LOCAL_TIME ( 11, 20, 44.00000000000000000, #132 ) ;
#194 = ORIENTED_EDGE ( 'NONE', *, *, #230, .F. ) ;
#195 = EDGE_CURVE ( 'NONE', #77, #175, #11, .T. ) ;
#196 = ORIENTED_EDGE ( 'NONE', *, *, #345, .F. ) ;
#197 = CIRCLE ( 'NONE', #318, 12.45971450914575800 ) ;
#198 = ORIENTED_EDGE ( 'NONE', *, *, #325, .T. ) ;
#199 = EDGE_LOOP ( 'NONE', ( #187, #61, #296, #19 ) ) ;
#200 = PERSON_AND_ORGANIZATION ( #323, #131 ) ;
#201 = AXIS2_PLACEMENT_3D ( 'NONE', #35, #312, #47 ) ;
#202 = VECTOR ( 'NONE', #32, 1000.000000000000100 ) ;
#203 = CARTESIAN_POINT ( 'NONE',  ( 0.0000000000000000000, 0.0000000000000000000, -45.74084051339609400 ) ) ;
#204 = CARTESIAN_POINT ( 'NONE',  ( 0.0000000000000000000, 0.0000000000000000000, -45.74084051339609400 ) ) ;
#205 = DIRECTION ( 'NONE',  ( -1.000000000000000000, 0.0000000000000000000, 0.0000000000000000000 ) ) ;
#206 = ADVANCED_FACE ( 'NONE', ( #119 ), #110, .T. ) ;
#207 = CARTESIAN_POINT ( 'NONE',  ( 0.0000000000000000000, 12.45971450914577100, 0.1995068334686798100 ) ) ;
#208 =( NAMED_UNIT ( * ) SI_UNIT ( $, .STERADIAN. ) SOLID_ANGLE_UNIT ( ) );
#209 = DIRECTION ( 'NONE',  ( 1.000000000000000000, 0.0000000000000000000, 0.0000000000000000000 ) ) ;
#210 = DATE_TIME_ROLE ( 'creation_date' ) ;
#211 = PRODUCT_DEFINITION ( 'UNKNOWN', '', #293, #358 ) ;
#212 = VECTOR ( 'NONE', #186, 1000.000000000000100 ) ;
#213 = CARTESIAN_POINT ( 'NONE',  ( 0.0000000000000000000, 0.0000000000000000000, -151.1408405133960900 ) ) ;
#214 = CIRCLE ( 'NONE', #135, 12.45971450914575800 ) ;
#215 = DIRECTION ( 'NONE',  ( -1.000000000000000000, 0.0000000000000000000, 0.0000000000000000000 ) ) ;
#216 = ORIENTED_EDGE ( 'NONE', *, *, #322, .T. ) ;
#217 = EDGE_CURVE ( 'NONE', #344, #324, #197, .T. ) ;
#218 = DIRECTION ( 'NONE',  ( -1.000000000000000000, 0.0000000000000000000, 0.0000000000000000000 ) ) ;
#219 = DIRECTION ( 'NONE',  ( 1.000000000000000000, 0.0000000000000000000, 0.0000000000000000000 ) ) ;
#220 = PERSON_AND_ORGANIZATION ( #323, #131 ) ;
#221 = AXIS2_PLACEMENT_3D ( 'NONE', #303, #145, #336 ) ;
#222 = EDGE_LOOP ( 'NONE', ( #330, #95, #329, #71, #14 ) ) ;
#223 = EDGE_LOOP ( 'NONE', ( #359, #216, #128, #339, #50 ) ) ;
#224 = VERTEX_POINT ( 'NONE', #39 ) ;
#225 = VECTOR ( 'NONE', #310, 1000.000000000000000 ) ;
#226 = APPROVAL ( #338, 'UNSPECIFIED' ) ;
#227 = ORIENTED_EDGE ( 'NONE', *, *, #58, .F. ) ;
#228 = FACE_OUTER_BOUND ( 'NONE', #222, .T. ) ;
#229 = VERTEX_POINT ( 'NONE', #288 ) ;
#230 = EDGE_CURVE ( 'NONE', #130, #56, #287, .T. ) ;
#231 = CARTESIAN_POINT ( 'NONE',  ( 0.0000000000000000000, 0.0000000000000000000, 0.0000000000000000000 ) ) ;
#232 = VECTOR ( 'NONE', #291, 1000.000000000000000 ) ;
#233 = APPLICATION_PROTOCOL_DEFINITION ( 'international standard', 'config_control_design', 1994, #259 ) ;
#234 = CARTESIAN_POINT ( 'NONE',  ( 0.0000000000000000000, 0.0000000000000000000, -45.74084051339609400 ) ) ;
#235 = APPROVAL_ROLE ( '' ) ;
#236 = CARTESIAN_POINT ( 'NONE',  ( 12.69999999999999900, 0.0000000000000000000, -1.630162503412430700 ) ) ;
#237 = ORIENTED_EDGE ( 'NONE', *, *, #81, .T. ) ;
#238 = AXIS2_PLACEMENT_3D ( 'NONE', #257, #92, #284 ) ;
#239 = CIRCLE ( 'NONE', #42, 12.69999999999999900 ) ;
#240 = DIRECTION ( 'NONE',  ( -0.0000000000000000000, -0.0000000000000000000, 1.000000000000000000 ) ) ;
#241 = VERTEX_POINT ( 'NONE', #340 ) ;
#242 = CC_DESIGN_APPROVAL ( #226, ( #211 ) ) ;
#243 = CYLINDRICAL_SURFACE ( 'NONE', #298, 12.69999999999999900 ) ;
#244 = SPHERICAL_SURFACE ( 'NONE', #156, 47.60000000000003700 ) ;
#245 = ORIENTED_EDGE ( 'NONE', *, *, #230, .T. ) ;
#246 = FACE_OUTER_BOUND ( 'NONE', #84, .T. ) ;
#247 = APPROVAL_DATE_TIME ( #83, #86 ) ;
#248 = VERTEX_POINT ( 'NONE', #348 ) ;
#249 = AXIS2_PLACEMENT_3D ( 'NONE', #204, #168, #172 ) ;
#250 = CONICAL_SURFACE ( 'NONE', #178, 12.45971450914574800, 0.6503591049373672600 ) ;
#251 = LINE ( 'NONE', #365, #202 ) ;
#252 = FACE_OUTER_BOUND ( 'NONE', #300, .T. ) ;
#253 = ORIENTED_EDGE ( 'NONE', *, *, #350, .T. ) ;
#254 = ORIENTED_EDGE ( 'NONE', *, *, #22, .T. ) ;
#255 = DIRECTION ( 'NONE',  ( -1.000000000000000000, -0.0000000000000000000, -0.0000000000000000000 ) ) ;
#256 = CARTESIAN_POINT ( 'NONE',  ( -12.69999999999999900, 1.555301434917138400E-015, -1.630162503412430700 ) ) ;
#257 = CARTESIAN_POINT ( 'NONE',  ( 0.0000000000000000000, 0.0000000000000000000, -45.74084051339609400 ) ) ;
#258 = ORIENTED_EDGE ( 'NONE', *, *, #3, .T. ) ;
#259 = APPLICATION_CONTEXT ( 'configuration controlled 3d designs of mechanical parts and assemblies' ) ;
#260 = DIRECTION ( 'NONE',  ( 0.0000000000000000000, 0.0000000000000000000, -1.000000000000000000 ) ) ;
#261 = PERSON_AND_ORGANIZATION_ROLE ( 'design_supplier' ) ;
#262 = CC_DESIGN_PERSON_AND_ORGANIZATION_ASSIGNMENT ( #311, #4, ( #211 ) ) ;
#263 = DIRECTION ( 'NONE',  ( 0.0000000000000000000, 0.0000000000000000000, -1.000000000000000000 ) ) ;
#264 = VECTOR ( 'NONE', #120, 1000.000000000000000 ) ;
#265 = CARTESIAN_POINT ( 'NONE',  ( 0.0000000000000000000, -9.172604525613676200E-015, -1.340840513396057700 ) ) ;
#266 = ORIENTED_EDGE ( 'NONE', *, *, #165, .T. ) ;
#267 = DIRECTION ( 'NONE',  ( -0.0000000000000000000, -0.0000000000000000000, 1.000000000000000000 ) ) ;
#268 = CALENDAR_DATE ( 2015, 13, 7 ) ;
#269 = DIRECTION ( 'NONE',  ( 0.0000000000000000000, 0.0000000000000000000, -1.000000000000000000 ) ) ;
#270 = ORIENTED_EDGE ( 'NONE', *, *, #45, .F. ) ;
#271 = VERTEX_POINT ( 'NONE', #102 ) ;
#272 = FACE_OUTER_BOUND ( 'NONE', #37, .T. ) ;
#273 = AXIS2_PLACEMENT_3D ( 'NONE', #2, #148, #209 ) ;
#274 = ADVANCED_BREP_SHAPE_REPRESENTATION ( '4926-E0W', ( #292, #159 ), #113 ) ;
#275 = ORIENTED_EDGE ( 'NONE', *, *, #23, .F. ) ;
#276 = CYLINDRICAL_SURFACE ( 'NONE', #152, 12.69999999999999900 ) ;
#277 = PERSON_AND_ORGANIZATION ( #323, #131 ) ;
#278 = APPROVAL_DATE_TIME ( #101, #226 ) ;
#279 = CC_DESIGN_DATE_AND_TIME_ASSIGNMENT ( #106, #210, ( #211 ) ) ;
#280 = PRODUCT ( '4926-E0W', '4926-E0W', '', ( #285 ) ) ;
#281 = ORIENTED_EDGE ( 'NONE', *, *, #350, .F. ) ;
#282 = DIRECTION ( 'NONE',  ( -0.0000000000000000000, -0.0000000000000000000, 1.000000000000000000 ) ) ;
#283 = CARTESIAN_POINT ( 'NONE',  ( 0.0000000000000000000, 0.0000000000000000000, 0.1995068334686954400 ) ) ;
#284 = DIRECTION ( 'NONE',  ( -1.224646799147353200E-016, -1.000000000000000000, 0.0000000000000000000 ) ) ;
#285 = MECHANICAL_CONTEXT ( 'NONE', #259, 'mechanical' ) ;
#286 = DIRECTION ( 'NONE',  ( -1.000000000000000000, 0.0000000000000000000, 0.0000000000000000000 ) ) ;
#287 = CIRCLE ( 'NONE', #343, 12.69999999999999900 ) ;
#288 = CARTESIAN_POINT ( 'NONE',  ( 1.524769904938450800E-015, 12.45069113804939500, -1.859159486603945600 ) ) ;
#289 = PERSON_AND_ORGANIZATION_ROLE ( 'classification_officer' ) ;
#290 = AXIS2_PLACEMENT_3D ( 'NONE', #234, #66, #260 ) ;
#291 = DIRECTION ( 'NONE',  ( -0.0000000000000000000, -0.0000000000000000000, 1.000000000000000000 ) ) ;
#292 = MANIFOLD_SOLID_BREP ( '4926-001-1-solid1', #25 ) ;
#293 = PRODUCT_DEFINITION_FORMATION_WITH_SPECIFIED_SOURCE ( 'ANY', '', #280, .NOT_KNOWN. ) ;
#294 = CARTESIAN_POINT ( 'NONE',  ( 0.0000000000000000000, 0.0000000000000000000, -1.859159486603940300 ) ) ;
#295 = PRODUCT_DEFINITION_SHAPE ( 'NONE', 'NONE',  #211 ) ;
#296 = ORIENTED_EDGE ( 'NONE', *, *, #362, .T. ) ;
#297 = ADVANCED_FACE ( 'NONE', ( #228 ), #88, .T. ) ;
#298 = AXIS2_PLACEMENT_3D ( 'NONE', #121, #36, #366 ) ;
#299 = ORIENTED_EDGE ( 'NONE', *, *, #345, .T. ) ;
#300 = EDGE_LOOP ( 'NONE', ( #26, #299, #253, #331 ) ) ;
#301 = DIRECTION ( 'NONE',  ( -1.000000000000000000, 0.0000000000000000000, 0.0000000000000000000 ) ) ;
#302 = CARTESIAN_POINT ( 'NONE',  ( 0.0000000000000000000, 0.0000000000000000000, -0.1163377912956236300 ) ) ;
#303 = CARTESIAN_POINT ( 'NONE',  ( 0.0000000000000000000, 0.0000000000000000000, 0.1995068334686815600 ) ) ;
#304 = CARTESIAN_POINT ( 'NONE',  ( 0.0000000000000000000, 0.0000000000000000000, 0.1995068334686815600 ) ) ;
#305 = ADVANCED_FACE ( 'NONE', ( #246 ), #317, .T. ) ;
#306 = CARTESIAN_POINT ( 'NONE',  ( 0.0000000000000000000, 2.914659381970703200E-015, 1.859159486603943800 ) ) ;
#307 = APPLICATION_CONTEXT ( 'configuration controlled 3d designs of mechanical parts and assemblies' ) ;
#308 = APPROVAL_STATUS ( 'not_yet_approved' ) ;
#309 = APPROVAL ( #40, 'UNSPECIFIED' ) ;
#310 = DIRECTION ( 'NONE',  ( 0.7364712167746215700, 0.0000000000000000000, 0.6764688809269118200 ) ) ;
#311 = PERSON_AND_ORGANIZATION ( #323, #131 ) ;
#312 = DIRECTION ( 'NONE',  ( 1.000000000000000000, 0.0000000000000000000, 0.0000000000000000000 ) ) ;
#313 = CIRCLE ( 'NONE', #27, 12.45069113804953000 ) ;
#314 = CARTESIAN_POINT ( 'NONE',  ( 0.0000000000000000000, 0.0000000000000000000, -1.630162503412430700 ) ) ;
#315 = CARTESIAN_POINT ( 'NONE',  ( 0.0000000000000000000, 0.0000000000000000000, -151.1408405133960900 ) ) ;
#316 = DIRECTION ( 'NONE',  ( -1.000000000000000000, 0.0000000000000000000, 0.0000000000000000000 ) ) ;
#317 = CONICAL_SURFACE ( 'NONE', #20, 12.69999999999999900, 0.8278389616937266200 ) ;
#318 = AXIS2_PLACEMENT_3D ( 'NONE', #177, #267, #154 ) ;
#319 = FACE_OUTER_BOUND ( 'NONE', #199, .T. ) ;
#320 = CALENDAR_DATE ( 2015, 13, 7 ) ;
#321 = ORIENTED_EDGE ( 'NONE', *, *, #195, .F. ) ;
#322 = EDGE_CURVE ( 'NONE', #324, #248, #87, .T. ) ;
#323 = PERSON ( 'UNSPECIFIED', 'UNSPECIFIED', 'UNSPECIFIED', ('UNSPECIFIED'), ('UNSPECIFIED'), ('UNSPECIFIED') ) ;
#324 = VERTEX_POINT ( 'NONE', #75 ) ;
#325 = EDGE_CURVE ( 'NONE', #248, #24, #239, .T. ) ;
#326 = CC_DESIGN_APPROVAL ( #309, ( #293 ) ) ;
#327 = CIRCLE ( 'NONE', #67, 12.69999999999999900 ) ;
#328 = ORIENTED_EDGE ( 'NONE', *, *, #81, .F. ) ;
#329 = ORIENTED_EDGE ( 'NONE', *, *, #153, .F. ) ;
#330 = ORIENTED_EDGE ( 'NONE', *, *, #322, .F. ) ;
#331 = ORIENTED_EDGE ( 'NONE', *, *, #58, .T. ) ;
#332 = CARTESIAN_POINT ( 'NONE',  ( 0.0000000000000000000, 0.0000000000000000000, 0.1995068334686815600 ) ) ;
#333 = CARTESIAN_POINT ( 'NONE',  ( 12.69999999999999900, 0.0000000000000000000, 1.859159486603943100 ) ) ;
#334 = ADVANCED_FACE ( 'NONE', ( #252 ), #16, .F. ) ;
#335 = DIRECTION ( 'NONE',  ( -1.000000000000000000, 0.0000000000000000000, 0.0000000000000000000 ) ) ;
#336 = DIRECTION ( 'NONE',  ( -1.000000000000000000, 0.0000000000000000000, 0.0000000000000000000 ) ) ;
#337 = DIRECTION ( 'NONE',  ( -1.000000000000000000, 0.0000000000000000000, 0.0000000000000000000 ) ) ;
#338 = APPROVAL_STATUS ( 'not_yet_approved' ) ;
#339 = ORIENTED_EDGE ( 'NONE', *, *, #80, .F. ) ;
#340 = CARTESIAN_POINT ( 'NONE',  ( 0.0000000000000000000, -12.45069113804939500, -1.859159486603945600 ) ) ;
#341 = LINE ( 'NONE', #333, #184 ) ;
#342 = DIRECTION ( 'NONE',  ( 1.224646799147353200E-016, 1.000000000000000000, 0.0000000000000000000 ) ) ;
#343 = AXIS2_PLACEMENT_3D ( 'NONE', #49, #240, #73 ) ;
#344 = VERTEX_POINT ( 'NONE', #52 ) ;
#345 = EDGE_CURVE ( 'NONE', #229, #271, #347, .T. ) ;
#346 = DIRECTION ( 'NONE',  ( 0.0000000000000000000, 0.0000000000000000000, -1.000000000000000000 ) ) ;
#347 = CIRCLE ( 'NONE', #57, 12.45069113804953000 ) ;
#348 = CARTESIAN_POINT ( 'NONE',  ( 12.69999999999999900, 0.0000000000000000000, -0.1163377912956236300 ) ) ;
#349 = DIRECTION ( 'NONE',  ( -0.0000000000000000000, -0.0000000000000000000, 1.000000000000000000 ) ) ;
#350 = EDGE_CURVE ( 'NONE', #271, #241, #142, .T. ) ;
#351 = DIRECTION ( 'NONE',  ( 0.0000000000000000000, 0.0000000000000000000, -1.000000000000000000 ) ) ;
#352 = SPHERICAL_SURFACE ( 'NONE', #201, 149.8000000000000100 ) ;
#353 = CC_DESIGN_PERSON_AND_ORGANIZATION_ASSIGNMENT ( #10, #68, ( #293 ) ) ;
#354 = DIRECTION ( 'NONE',  ( 1.000000000000000000, 0.0000000000000000000, 0.0000000000000000000 ) ) ;
#355 = ORIENTED_EDGE ( 'NONE', *, *, #137, .F. ) ;
#356 = UNCERTAINTY_MEASURE_WITH_UNIT (LENGTH_MEASURE( 1.000000000000000100E-005 ), #173, 'distance_accuracy_value', 'NONE');
#357 = LINE ( 'NONE', #236, #225 ) ;
#358 = DESIGN_CONTEXT ( 'detailed design', #307, 'design' ) ;
#359 = ORIENTED_EDGE ( 'NONE', *, *, #362, .F. ) ;
#360 = AXIS2_PLACEMENT_3D ( 'NONE', #185, #269, #218 ) ;
#361 = ADVANCED_FACE ( 'NONE', ( #117 ), #276, .T. ) ;
#362 = EDGE_CURVE ( 'NONE', #324, #77, #214, .T. ) ;
#363 = DIRECTION ( 'NONE',  ( -1.000000000000000000, 0.0000000000000000000, 0.0000000000000000000 ) ) ;
#364 = CARTESIAN_POINT ( 'NONE',  ( -12.69999999999999900, 1.555301434917138400E-015, -1.630162503412430500 ) ) ;
#365 = CARTESIAN_POINT ( 'NONE',  ( -12.45971450914574800, 0.0000000000000000000, 0.1995068334686954400 ) ) ;
#366 = DIRECTION ( 'NONE',  ( 1.000000000000000000, 0.0000000000000000000, 0.0000000000000000000 ) ) ;
#367 =( NAMED_UNIT ( * ) PLANE_ANGLE_UNIT ( ) SI_UNIT ( $, .RADIAN. ) );
ENDSEC;
END-ISO-10303-21;
