ISO-10303-21;
HEADER;
FILE_DESCRIPTION (( 'STEP AP203' ),
    '1' );
FILE_NAME ('4338-E0W.STEP',
    '2015-06-17T20:48:50',
    ( 'admin' ),
    ( '' ),
    'SwSTEP 2.0',
    'SolidWorks 2014',
    '' );
FILE_SCHEMA (( 'CONFIG_CONTROL_DESIGN' ));
ENDSEC;

DATA;
#1 = CARTESIAN_POINT ( 'NONE',  ( 25.15045039310322000, 3.095322363468546000E-015, 1.511036323548764500 ) ) ;
#2 = CARTESIAN_POINT ( 'NONE',  ( 0.0000000000000000000, 0.0000000000000000000, 2.200000000000000200 ) ) ;
#3 = CC_DESIGN_DATE_AND_TIME_ASSIGNMENT ( #62, #258, ( #51 ) ) ;
#4 = LOCAL_TIME ( 16, 48, 50.00000000000000000, #326 ) ;
#5 = ORIENTED_EDGE ( 'NONE', *, *, #93, .T. ) ;
#6 = CIRCLE ( 'NONE', #348, 459.3999999999999800 ) ;
#7 = AXIS2_PLACEMENT_3D ( 'NONE', #266, #316, #166 ) ;
#8 = ADVANCED_FACE ( 'NONE', ( #224 ), #342, .T. ) ;
#9 = CALENDAR_DATE ( 2015, 17, 6 ) ;
#10 = DIRECTION ( 'NONE',  ( 0.0000000000000000000, 0.0000000000000000000, -1.000000000000000000 ) ) ;
#11 = DIRECTION ( 'NONE',  ( 0.0000000000000000000, 0.0000000000000000000, -1.000000000000000000 ) ) ;
#12 = EDGE_CURVE ( 'NONE', #146, #296, #119, .T. ) ;
#13 = CIRCLE ( 'NONE', #79, 25.15045039310324200 ) ;
#14 = DATE_AND_TIME ( #100, #135 ) ;
#15 = AXIS2_PLACEMENT_3D ( 'NONE', #42, #329, #200 ) ;
#16 = CARTESIAN_POINT ( 'NONE',  ( -3.080041857102732700E-015, -25.15045039310255200, -1.511036323548792200 ) ) ;
#17 = SPHERICAL_SURFACE ( 'NONE', #149, 459.3999999999999800 ) ;
#18 = DIRECTION ( 'NONE',  ( -1.000000000000000000, 0.0000000000000000000, 0.0000000000000000000 ) ) ;
#19 = CC_DESIGN_PERSON_AND_ORGANIZATION_ASSIGNMENT ( #77, #128, ( #51 ) ) ;
#20 = EDGE_CURVE ( 'NONE', #137, #132, #180, .T. ) ;
#21 = DATE_AND_TIME ( #183, #247 ) ;
#22 = DIRECTION ( 'NONE',  ( 0.0000000000000000000, 0.0000000000000000000, -1.000000000000000000 ) ) ;
#23 = ORIENTED_EDGE ( 'NONE', *, *, #232, .F. ) ;
#24 = AXIS2_PLACEMENT_3D ( 'NONE', #333, #335, #344 ) ;
#25 = CARTESIAN_POINT ( 'NONE',  ( 0.0000000000000000000, 0.0000000000000000000, 1.511036323548764500 ) ) ;
#26 = PERSON ( 'UNSPECIFIED', 'UNSPECIFIED', 'UNSPECIFIED', ('UNSPECIFIED'), ('UNSPECIFIED'), ('UNSPECIFIED') ) ;
#27 = EDGE_CURVE ( 'NONE', #296, #78, #52, .T. ) ;
#28 = AXIS2_PLACEMENT_3D ( 'NONE', #2, #105, #101 ) ;
#29 = CARTESIAN_POINT ( 'NONE',  ( 25.39999999999999900, 0.0000000000000000000, 1.247285799687192200 ) ) ;
#30 = SHAPE_DEFINITION_REPRESENTATION ( #71, #88 ) ;
#31 = ORIENTED_EDGE ( 'NONE', *, *, #27, .T. ) ;
#32 = CARTESIAN_POINT ( 'NONE',  ( 0.0000000000000000000, 0.0000000000000000000, 457.1999999999999900 ) ) ;
#33 = DIRECTION ( 'NONE',  ( -0.0000000000000000000, -0.0000000000000000000, 1.000000000000000000 ) ) ;
#34 = EDGE_CURVE ( 'NONE', #195, #49, #138, .T. ) ;
#35 = ORIENTED_EDGE ( 'NONE', *, *, #325, .F. ) ;
#36 = ADVANCED_FACE ( 'NONE', ( #154 ), #164, .T. ) ;
#37 = PRODUCT_DEFINITION ( 'UNKNOWN', '', #190, #250 ) ;
#38 =( NAMED_UNIT ( * ) SI_UNIT ( $, .STERADIAN. ) SOLID_ANGLE_UNIT ( ) );
#39 = AXIS2_PLACEMENT_3D ( 'NONE', #47, #60, #323 ) ;
#40 = VECTOR ( 'NONE', #351, 1000.000000000000000 ) ;
#41 = PERSON_AND_ORGANIZATION_ROLE ( 'creator' ) ;
#42 = CARTESIAN_POINT ( 'NONE',  ( 0.0000000000000000000, 0.0000000000000000000, 0.0000000000000000000 ) ) ;
#43 = AXIS2_PLACEMENT_3D ( 'NONE', #87, #248, #230 ) ;
#44 = ORIENTED_EDGE ( 'NONE', *, *, #306, .T. ) ;
#45 = EDGE_CURVE ( 'NONE', #273, #137, #256, .T. ) ;
#46 = CYLINDRICAL_SURFACE ( 'NONE', #102, 25.39999999999999900 ) ;
#47 = CARTESIAN_POINT ( 'NONE',  ( 0.0000000000000000000, 0.0000000000000000000, -457.1999999999999900 ) ) ;
#48 = COORDINATED_UNIVERSAL_TIME_OFFSET ( 5, 0, .BEHIND. ) ;
#49 = VERTEX_POINT ( 'NONE', #16 ) ;
#50 = ORIENTED_EDGE ( 'NONE', *, *, #295, .F. ) ;
#51 = SECURITY_CLASSIFICATION ( '', '', #300 ) ;
#52 = CIRCLE ( 'NONE', #43, 25.15045039310322000 ) ;
#53 = CARTESIAN_POINT ( 'NONE',  ( 0.0000000000000000000, 0.0000000000000000000, 1.511036323548709000 ) ) ;
#54 = DIRECTION ( 'NONE',  ( 0.0000000000000000000, 0.0000000000000000000, -1.000000000000000000 ) ) ;
#55 = ORIENTED_EDGE ( 'NONE', *, *, #220, .F. ) ;
#56 = DIRECTION ( 'NONE',  ( 0.0000000000000000000, 0.0000000000000000000, -1.000000000000000000 ) ) ;
#57 = VERTEX_POINT ( 'NONE', #223 ) ;
#58 = DIRECTION ( 'NONE',  ( -1.000000000000000000, 1.224646799147353200E-016, 0.0000000000000000000 ) ) ;
#59 = EDGE_LOOP ( 'NONE', ( #215, #113, #126, #233, #112 ) ) ;
#60 = DIRECTION ( 'NONE',  ( -1.000000000000000000, 1.224646799147353200E-016, 0.0000000000000000000 ) ) ;
#61 = AXIS2_PLACEMENT_3D ( 'NONE', #108, #339, #298 ) ;
#62 = DATE_AND_TIME ( #9, #367 ) ;
#63 = ORIENTED_EDGE ( 'NONE', *, *, #264, .F. ) ;
#64 = ADVANCED_FACE ( 'NONE', ( #120 ), #290, .T. ) ;
#65 = CARTESIAN_POINT ( 'NONE',  ( -25.15045039310322000, 0.0000000000000000000, 1.511036323548764500 ) ) ;
#66 = ORIENTED_EDGE ( 'NONE', *, *, #122, .F. ) ;
#67 = DIRECTION ( 'NONE',  ( -0.0000000000000000000, -0.0000000000000000000, 1.000000000000000000 ) ) ;
#68 = APPROVAL_DATE_TIME ( #21, #153 ) ;
#69 = CARTESIAN_POINT ( 'NONE',  ( 0.0000000000000000000, 0.0000000000000000000, -457.1999999999999900 ) ) ;
#70 = CIRCLE ( 'NONE', #98, 459.3999999999999800 ) ;
#71 = PRODUCT_DEFINITION_SHAPE ( 'NONE', 'NONE',  #37 ) ;
#72 = AXIS2_PLACEMENT_3D ( 'NONE', #25, #353, #158 ) ;
#73 = PRODUCT_RELATED_PRODUCT_CATEGORY ( 'detail', '', ( #251 ) ) ;
#74 = APPROVAL_STATUS ( 'not_yet_approved' ) ;
#75 = DIRECTION ( 'NONE',  ( 0.0000000000000000000, 1.000000000000000000, 0.0000000000000000000 ) ) ;
#76 = APPLICATION_PROTOCOL_DEFINITION ( 'international standard', 'config_control_design', 1994, #225 ) ;
#77 = PERSON_AND_ORGANIZATION ( #26, #214 ) ;
#78 = VERTEX_POINT ( 'NONE', #65 ) ;
#79 = AXIS2_PLACEMENT_3D ( 'NONE', #301, #125, #341 ) ;
#80 = AXIS2_PLACEMENT_3D ( 'NONE', #297, #22, #184 ) ;
#81 = CARTESIAN_POINT ( 'NONE',  ( 25.39999999999999900, 0.0000000000000000000, -1.247285799687192200 ) ) ;
#82 = DIRECTION ( 'NONE',  ( 1.000000000000000000, 0.0000000000000000000, 0.0000000000000000000 ) ) ;
#83 = APPROVAL_PERSON_ORGANIZATION ( #90, #282, #313 ) ;
#84 = CARTESIAN_POINT ( 'NONE',  ( 0.0000000000000000000, 0.0000000000000000000, 2.200000000000000200 ) ) ;
#85 = EDGE_LOOP ( 'NONE', ( #23, #44, #249, #140 ) ) ;
#86 = VECTOR ( 'NONE', #319, 1000.000000000000000 ) ;
#87 = CARTESIAN_POINT ( 'NONE',  ( 0.0000000000000000000, 0.0000000000000000000, 1.511036323548764500 ) ) ;
#88 = ADVANCED_BREP_SHAPE_REPRESENTATION ( '4338-E0W', ( #136, #15 ), #194 ) ;
#89 = FACE_OUTER_BOUND ( 'NONE', #209, .T. ) ;
#90 = PERSON_AND_ORGANIZATION ( #26, #214 ) ;
#91 = CC_DESIGN_PERSON_AND_ORGANIZATION_ASSIGNMENT ( #265, #41, ( #190 ) ) ;
#92 = ORIENTED_EDGE ( 'NONE', *, *, #254, .T. ) ;
#93 = EDGE_CURVE ( 'NONE', #49, #308, #129, .T. ) ;
#94 = CARTESIAN_POINT ( 'NONE',  ( 0.0000000000000000000, 0.0000000000000000000, 457.1999999999999900 ) ) ;
#95 = ORIENTED_EDGE ( 'NONE', *, *, #142, .F. ) ;
#96 = CARTESIAN_POINT ( 'NONE',  ( 0.0000000000000000000, 0.0000000000000000000, -1.247285799687192200 ) ) ;
#97 = EDGE_LOOP ( 'NONE', ( #31, #222, #334, #343 ) ) ;
#98 = AXIS2_PLACEMENT_3D ( 'NONE', #94, #106, #10 ) ;
#99 = ORIENTED_EDGE ( 'NONE', *, *, #226, .T. ) ;
#100 = CALENDAR_DATE ( 2015, 17, 6 ) ;
#101 = DIRECTION ( 'NONE',  ( 1.000000000000000000, 0.0000000000000000000, 0.0000000000000000000 ) ) ;
#102 = AXIS2_PLACEMENT_3D ( 'NONE', #84, #159, #178 ) ;
#103 = CIRCLE ( 'NONE', #72, 25.15045039310322000 ) ;
#104 = ORIENTED_EDGE ( 'NONE', *, *, #20, .T. ) ;
#105 = DIRECTION ( 'NONE',  ( -0.0000000000000000000, -0.0000000000000000000, 1.000000000000000000 ) ) ;
#106 = DIRECTION ( 'NONE',  ( 1.000000000000000000, 0.0000000000000000000, 0.0000000000000000000 ) ) ;
#107 = DIRECTION ( 'NONE',  ( 0.0000000000000000000, 0.0000000000000000000, -1.000000000000000000 ) ) ;
#108 = CARTESIAN_POINT ( 'NONE',  ( 0.0000000000000000000, 0.0000000000000000000, -1.511036323548820000 ) ) ;
#109 = CARTESIAN_POINT ( 'NONE',  ( 25.39999999999999900, 0.0000000000000000000, 2.200000000000000200 ) ) ;
#110 = AXIS2_PLACEMENT_3D ( 'NONE', #345, #294, #328 ) ;
#111 = APPROVAL_DATE_TIME ( #155, #350 ) ;
#112 = ORIENTED_EDGE ( 'NONE', *, *, #27, .F. ) ;
#113 = ORIENTED_EDGE ( 'NONE', *, *, #295, .T. ) ;
#114 = APPLICATION_PROTOCOL_DEFINITION ( 'international standard', 'config_control_design', 1994, #318 ) ;
#115 = ORIENTED_EDGE ( 'NONE', *, *, #243, .T. ) ;
#116 = AXIS2_PLACEMENT_3D ( 'NONE', #327, #56, #364 ) ;
#117 = DIRECTION ( 'NONE',  ( -1.224646799147353200E-016, -1.000000000000000000, 0.0000000000000000000 ) ) ;
#118 = APPROVAL_DATE_TIME ( #208, #282 ) ;
#119 = CIRCLE ( 'NONE', #173, 25.15045039310322000 ) ;
#120 = FACE_OUTER_BOUND ( 'NONE', #361, .T. ) ;
#121 = ADVANCED_FACE ( 'NONE', ( #236 ), #229, .T. ) ;
#122 = EDGE_CURVE ( 'NONE', #273, #303, #331, .T. ) ;
#123 = FACE_OUTER_BOUND ( 'NONE', #287, .T. ) ;
#124 = CARTESIAN_POINT ( 'NONE',  ( 25.39999999999999900, 0.0000000000000000000, -1.247285799687192200 ) ) ;
#125 = DIRECTION ( 'NONE',  ( 0.0000000000000000000, 0.0000000000000000000, -1.000000000000000000 ) ) ;
#126 = ORIENTED_EDGE ( 'NONE', *, *, #254, .F. ) ;
#127 =( NAMED_UNIT ( * ) PLANE_ANGLE_UNIT ( ) SI_UNIT ( $, .RADIAN. ) );
#128 = PERSON_AND_ORGANIZATION_ROLE ( 'classification_officer' ) ;
#129 = CIRCLE ( 'NONE', #61, 25.15045039310324200 ) ;
#130 = ORIENTED_EDGE ( 'NONE', *, *, #45, .F. ) ;
#131 = CC_DESIGN_PERSON_AND_ORGANIZATION_ASSIGNMENT ( #187, #263, ( #37 ) ) ;
#132 = VERTEX_POINT ( 'NONE', #143 ) ;
#133 = CARTESIAN_POINT ( 'NONE',  ( 0.0000000000000000000, 25.15045039310255200, -1.511036323548792200 ) ) ;
#134 = LINE ( 'NONE', #191, #40 ) ;
#135 = LOCAL_TIME ( 16, 48, 50.00000000000000000, #48 ) ;
#136 = MANIFOLD_SOLID_BREP ( '4338-001-1-solid1', #283 ) ;
#137 = VERTEX_POINT ( 'NONE', #322 ) ;
#138 = CIRCLE ( 'NONE', #269, 459.3999999999999800 ) ;
#139 = DIRECTION ( 'NONE',  ( 0.6872810531165878300, 8.416765418138513300E-017, -0.7263915982629163300 ) ) ;
#140 = ORIENTED_EDGE ( 'NONE', *, *, #291, .T. ) ;
#141 = ORIENTED_EDGE ( 'NONE', *, *, #257, .F. ) ;
#142 = EDGE_CURVE ( 'NONE', #78, #57, #103, .T. ) ;
#143 = CARTESIAN_POINT ( 'NONE',  ( -25.39999999999999900, 3.110602869834276900E-015, 1.247285799687192200 ) ) ;
#144 = MECHANICAL_CONTEXT ( 'NONE', #225, 'mechanical' ) ;
#145 = PERSON_AND_ORGANIZATION ( #26, #214 ) ;
#146 = VERTEX_POINT ( 'NONE', #1 ) ;
#147 = ORIENTED_EDGE ( 'NONE', *, *, #277, .T. ) ;
#148 = VECTOR ( 'NONE', #274, 1000.000000000000000 ) ;
#149 = AXIS2_PLACEMENT_3D ( 'NONE', #188, #234, #271 ) ;
#150 = CARTESIAN_POINT ( 'NONE',  ( 0.0000000000000000000, 2.813013697641470300E-014, 2.199999999999979700 ) ) ;
#151 = DIRECTION ( 'NONE',  ( 0.0000000000000000000, 0.0000000000000000000, -1.000000000000000000 ) ) ;
#152 = ADVANCED_FACE ( 'NONE', ( #276 ), #160, .T. ) ;
#153 = APPROVAL ( #74, 'UNSPECIFIED' ) ;
#154 = FACE_OUTER_BOUND ( 'NONE', #59, .T. ) ;
#155 = DATE_AND_TIME ( #235, #4 ) ;
#156 = ORIENTED_EDGE ( 'NONE', *, *, #213, .F. ) ;
#157 = EDGE_LOOP ( 'NONE', ( #156, #176, #35, #310, #201 ) ) ;
#158 = DIRECTION ( 'NONE',  ( -1.000000000000000000, 0.0000000000000000000, 0.0000000000000000000 ) ) ;
#159 = DIRECTION ( 'NONE',  ( -0.0000000000000000000, -0.0000000000000000000, 1.000000000000000000 ) ) ;
#160 = CONICAL_SURFACE ( 'NONE', #255, 25.15045039310327400, 0.7577393052817473800 ) ;
#161 = AXIS2_PLACEMENT_3D ( 'NONE', #354, #260, #360 ) ;
#162 = DATE_TIME_ROLE ( 'creation_date' ) ;
#163 = VECTOR ( 'NONE', #358, 1000.000000000000000 ) ;
#164 = CONICAL_SURFACE ( 'NONE', #80, 25.15045039310327400, 0.7577393052817473800 ) ;
#165 = LINE ( 'NONE', #168, #148 ) ;
#166 = DIRECTION ( 'NONE',  ( 1.000000000000000000, 0.0000000000000000000, 0.0000000000000000000 ) ) ;
#167 = CARTESIAN_POINT ( 'NONE',  ( -25.39999999999999900, 3.110602869834276900E-015, 2.200000000000000200 ) ) ;
#168 = CARTESIAN_POINT ( 'NONE',  ( -25.39999999999999900, 3.110602869834276900E-015, -1.247285799687192200 ) ) ;
#169 = COORDINATED_UNIVERSAL_TIME_OFFSET ( 5, 0, .BEHIND. ) ;
#170 = DIRECTION ( 'NONE',  ( 1.000000000000000000, 0.0000000000000000000, 0.0000000000000000000 ) ) ;
#171 = CARTESIAN_POINT ( 'NONE',  ( 0.0000000000000000000, 25.15045039310309200, 1.511036323548736700 ) ) ;
#172 = ORIENTED_EDGE ( 'NONE', *, *, #257, .T. ) ;
#173 = AXIS2_PLACEMENT_3D ( 'NONE', #219, #33, #366 ) ;
#174 = CARTESIAN_POINT ( 'NONE',  ( 25.15045039310327400, 3.080041857102821500E-015, 1.511036323548709000 ) ) ;
#175 = CARTESIAN_POINT ( 'NONE',  ( 25.15045039310324200, 0.0000000000000000000, -1.511036323548820000 ) ) ;
#176 = ORIENTED_EDGE ( 'NONE', *, *, #93, .F. ) ;
#177 = AXIS2_PLACEMENT_3D ( 'NONE', #245, #212, #82 ) ;
#178 = DIRECTION ( 'NONE',  ( 1.000000000000000000, 0.0000000000000000000, 0.0000000000000000000 ) ) ;
#179 = PERSON_AND_ORGANIZATION ( #26, #214 ) ;
#180 = LINE ( 'NONE', #167, #163 ) ;
#181 = EDGE_LOOP ( 'NONE', ( #63, #332, #130, #55, #141 ) ) ;
#182 = CIRCLE ( 'NONE', #39, 459.3999999999999800 ) ;
#183 = CALENDAR_DATE ( 2015, 17, 6 ) ;
#184 = DIRECTION ( 'NONE',  ( -1.000000000000000000, 0.0000000000000000000, 0.0000000000000000000 ) ) ;
#185 = ADVANCED_FACE ( 'NONE', ( #123 ), #238, .T. ) ;
#186 = FACE_OUTER_BOUND ( 'NONE', #189, .T. ) ;
#187 = PERSON_AND_ORGANIZATION ( #26, #214 ) ;
#188 = CARTESIAN_POINT ( 'NONE',  ( 0.0000000000000000000, 0.0000000000000000000, -457.1999999999999900 ) ) ;
#189 = EDGE_LOOP ( 'NONE', ( #204, #104, #92, #66 ) ) ;
#190 = PRODUCT_DEFINITION_FORMATION_WITH_SPECIFIED_SOURCE ( 'ANY', '', #251, .NOT_KNOWN. ) ;
#191 = CARTESIAN_POINT ( 'NONE',  ( -25.15045039310327400, 0.0000000000000000000, 1.511036323548709000 ) ) ;
#192 = ORIENTED_EDGE ( 'NONE', *, *, #325, .T. ) ;
#193 = APPROVAL_ROLE ( '' ) ;
#194 =( GEOMETRIC_REPRESENTATION_CONTEXT ( 3 ) GLOBAL_UNCERTAINTY_ASSIGNED_CONTEXT ( ( #302 ) ) GLOBAL_UNIT_ASSIGNED_CONTEXT ( ( #227, #127, #38 ) ) REPRESENTATION_CONTEXT ( 'NONE', 'WORKASPACE' ) );
#195 = VERTEX_POINT ( 'NONE', #262 ) ;
#196 = ORIENTED_EDGE ( 'NONE', *, *, #122, .T. ) ;
#197 = DIRECTION ( 'NONE',  ( 1.000000000000000000, -0.0000000000000000000, 0.0000000000000000000 ) ) ;
#198 = CARTESIAN_POINT ( 'NONE',  ( 0.0000000000000000000, 0.0000000000000000000, 1.247285799687192200 ) ) ;
#199 = VECTOR ( 'NONE', #139, 1000.000000000000000 ) ;
#200 = DIRECTION ( 'NONE',  ( 1.000000000000000000, 0.0000000000000000000, 0.0000000000000000000 ) ) ;
#201 = ORIENTED_EDGE ( 'NONE', *, *, #226, .F. ) ;
#202 = CC_DESIGN_PERSON_AND_ORGANIZATION_ASSIGNMENT ( #179, #347, ( #251 ) ) ;
#203 = DIRECTION ( 'NONE',  ( -0.0000000000000000000, -0.0000000000000000000, 1.000000000000000000 ) ) ;
#204 = ORIENTED_EDGE ( 'NONE', *, *, #45, .T. ) ;
#205 = ORIENTED_EDGE ( 'NONE', *, *, #279, .T. ) ;
#206 = PERSON_AND_ORGANIZATION_ROLE ( 'design_supplier' ) ;
#207 = FACE_OUTER_BOUND ( 'NONE', #97, .T. ) ;
#208 = DATE_AND_TIME ( #349, #285 ) ;
#209 = EDGE_LOOP ( 'NONE', ( #216, #217, #5, #363 ) ) ;
#210 = ORIENTED_EDGE ( 'NONE', *, *, #306, .F. ) ;
#211 = ADVANCED_FACE ( 'NONE', ( #337 ), #17, .T. ) ;
#212 = DIRECTION ( 'NONE',  ( 0.0000000000000000000, 0.0000000000000000000, -1.000000000000000000 ) ) ;
#213 = EDGE_CURVE ( 'NONE', #308, #137, #165, .T. ) ;
#214 = ORGANIZATION ( 'UNSPECIFIED', 'UNSPECIFIED', '' ) ;
#215 = ORIENTED_EDGE ( 'NONE', *, *, #12, .F. ) ;
#216 = ORIENTED_EDGE ( 'NONE', *, *, #279, .F. ) ;
#217 = ORIENTED_EDGE ( 'NONE', *, *, #34, .T. ) ;
#218 = DIRECTION ( 'NONE',  ( -1.000000000000000000, 0.0000000000000000000, 0.0000000000000000000 ) ) ;
#219 = CARTESIAN_POINT ( 'NONE',  ( 0.0000000000000000000, 0.0000000000000000000, 1.511036323548764500 ) ) ;
#220 = EDGE_CURVE ( 'NONE', #320, #273, #252, .T. ) ;
#221 = CIRCLE ( 'NONE', #177, 25.15045039310324200 ) ;
#222 = ORIENTED_EDGE ( 'NONE', *, *, #142, .T. ) ;
#223 = CARTESIAN_POINT ( 'NONE',  ( -3.080041857102799400E-015, -25.15045039310309200, 1.511036323548736700 ) ) ;
#224 = FACE_OUTER_BOUND ( 'NONE', #181, .T. ) ;
#225 = APPLICATION_CONTEXT ( 'configuration controlled 3d designs of mechanical parts and assemblies' ) ;
#226 = EDGE_CURVE ( 'NONE', #137, #273, #317, .T. ) ;
#227 =( LENGTH_UNIT ( ) NAMED_UNIT ( * ) SI_UNIT ( .MILLI., .METRE. ) );
#228 = COORDINATED_UNIVERSAL_TIME_OFFSET ( 5, 0, .BEHIND. ) ;
#229 = CONICAL_SURFACE ( 'NONE', #288, 25.39999999999999900, 0.7577393052817127400 ) ;
#230 = DIRECTION ( 'NONE',  ( -1.000000000000000000, 0.0000000000000000000, 0.0000000000000000000 ) ) ;
#231 = APPROVAL_STATUS ( 'not_yet_approved' ) ;
#232 = EDGE_CURVE ( 'NONE', #57, #304, #182, .T. ) ;
#233 = ORIENTED_EDGE ( 'NONE', *, *, #243, .F. ) ;
#234 = DIRECTION ( 'NONE',  ( -1.000000000000000000, 0.0000000000000000000, 0.0000000000000000000 ) ) ;
#235 = CALENDAR_DATE ( 2015, 17, 6 ) ;
#236 = FACE_OUTER_BOUND ( 'NONE', #157, .T. ) ;
#237 = CARTESIAN_POINT ( 'NONE',  ( -25.15045039310324200, 3.095322363468547600E-015, -1.511036323548820000 ) ) ;
#238 = CYLINDRICAL_SURFACE ( 'NONE', #28, 25.39999999999999900 ) ;
#239 = DIRECTION ( 'NONE',  ( 0.0000000000000000000, 1.000000000000000000, 0.0000000000000000000 ) ) ;
#240 = ORIENTED_EDGE ( 'NONE', *, *, #277, .F. ) ;
#241 = VERTEX_POINT ( 'NONE', #133 ) ;
#242 = CARTESIAN_POINT ( 'NONE',  ( 0.0000000000000000000, 0.0000000000000000000, -1.247285799687192200 ) ) ;
#243 = EDGE_CURVE ( 'NONE', #78, #132, #134, .T. ) ;
#244 = LINE ( 'NONE', #174, #199 ) ;
#245 = CARTESIAN_POINT ( 'NONE',  ( 0.0000000000000000000, 0.0000000000000000000, -1.511036323548820000 ) ) ;
#246 = ORIENTED_EDGE ( 'NONE', *, *, #20, .F. ) ;
#247 = LOCAL_TIME ( 16, 48, 50.00000000000000000, #228 ) ;
#248 = DIRECTION ( 'NONE',  ( -0.0000000000000000000, -0.0000000000000000000, 1.000000000000000000 ) ) ;
#249 = ORIENTED_EDGE ( 'NONE', *, *, #12, .T. ) ;
#250 = DESIGN_CONTEXT ( 'detailed design', #318, 'design' ) ;
#251 = PRODUCT ( '4338-E0W', '4338-E0W', '', ( #144 ) ) ;
#252 = LINE ( 'NONE', #81, #86 ) ;
#253 = CC_DESIGN_PERSON_AND_ORGANIZATION_ASSIGNMENT ( #268, #206, ( #190 ) ) ;
#254 = EDGE_CURVE ( 'NONE', #132, #303, #275, .T. ) ;
#255 = AXIS2_PLACEMENT_3D ( 'NONE', #53, #54, #338 ) ;
#256 = CIRCLE ( 'NONE', #110, 25.39999999999999900 ) ;
#257 = EDGE_CURVE ( 'NONE', #241, #320, #13, .T. ) ;
#258 = DATE_TIME_ROLE ( 'classification_date' ) ;
#259 = ADVANCED_FACE ( 'NONE', ( #186 ), #46, .T. ) ;
#260 = DIRECTION ( 'NONE',  ( -1.000000000000000000, 0.0000000000000000000, 0.0000000000000000000 ) ) ;
#261 = CC_DESIGN_APPROVAL ( #350, ( #190 ) ) ;
#262 = CARTESIAN_POINT ( 'NONE',  ( 0.0000000000000000000, 2.813013697641470300E-014, -2.199999999999979700 ) ) ;
#263 = PERSON_AND_ORGANIZATION_ROLE ( 'creator' ) ;
#264 = EDGE_CURVE ( 'NONE', #308, #241, #309, .T. ) ;
#265 = PERSON_AND_ORGANIZATION ( #26, #214 ) ;
#266 = CARTESIAN_POINT ( 'NONE',  ( 0.0000000000000000000, 0.0000000000000000000, -1.247285799687192200 ) ) ;
#267 = SPHERICAL_SURFACE ( 'NONE', #161, 459.3999999999999800 ) ;
#268 = PERSON_AND_ORGANIZATION ( #26, #214 ) ;
#269 = AXIS2_PLACEMENT_3D ( 'NONE', #32, #58, #117 ) ;
#270 = CIRCLE ( 'NONE', #24, 25.15045039310322000 ) ;
#271 = DIRECTION ( 'NONE',  ( 0.0000000000000000000, 1.000000000000000000, 0.0000000000000000000 ) ) ;
#272 = CARTESIAN_POINT ( 'NONE',  ( 0.0000000000000000000, 0.0000000000000000000, 1.247285799687192200 ) ) ;
#273 = VERTEX_POINT ( 'NONE', #124 ) ;
#274 = DIRECTION ( 'NONE',  ( -0.6872810531165626200, 8.416765418138206400E-017, 0.7263915982629402000 ) ) ;
#275 = CIRCLE ( 'NONE', #352, 25.39999999999999900 ) ;
#276 = FACE_OUTER_BOUND ( 'NONE', #299, .T. ) ;
#277 = EDGE_CURVE ( 'NONE', #303, #132, #321, .T. ) ;
#278 = CC_DESIGN_APPROVAL ( #153, ( #37 ) ) ;
#279 = EDGE_CURVE ( 'NONE', #195, #241, #70, .T. ) ;
#280 = ADVANCED_FACE ( 'NONE', ( #207 ), #293, .T. ) ;
#281 = APPROVAL_PERSON_ORGANIZATION ( #312, #153, #193 ) ;
#282 = APPROVAL ( #231, 'UNSPECIFIED' ) ;
#283 = CLOSED_SHELL ( 'NONE', ( #36, #8, #305, #259, #280, #211, #185, #64, #121, #152 ) ) ;
#284 = AXIS2_PLACEMENT_3D ( 'NONE', #96, #203, #170 ) ;
#285 = LOCAL_TIME ( 16, 48, 50.00000000000000000, #169 ) ;
#286 = ORIENTED_EDGE ( 'NONE', *, *, #34, .F. ) ;
#287 = EDGE_LOOP ( 'NONE', ( #246, #99, #196, #147 ) ) ;
#288 = AXIS2_PLACEMENT_3D ( 'NONE', #242, #356, #311 ) ;
#289 = COORDINATED_UNIVERSAL_TIME_OFFSET ( 5, 0, .BEHIND. ) ;
#290 = SPHERICAL_SURFACE ( 'NONE', #365, 459.3999999999999800 ) ;
#291 = EDGE_CURVE ( 'NONE', #296, #304, #6, .T. ) ;
#292 = CC_DESIGN_DATE_AND_TIME_ASSIGNMENT ( #14, #162, ( #37 ) ) ;
#293 = SPHERICAL_SURFACE ( 'NONE', #336, 459.3999999999999800 ) ;
#294 = DIRECTION ( 'NONE',  ( -0.0000000000000000000, -0.0000000000000000000, 1.000000000000000000 ) ) ;
#295 = EDGE_CURVE ( 'NONE', #146, #303, #244, .T. ) ;
#296 = VERTEX_POINT ( 'NONE', #171 ) ;
#297 = CARTESIAN_POINT ( 'NONE',  ( 0.0000000000000000000, 0.0000000000000000000, 1.511036323548709000 ) ) ;
#298 = DIRECTION ( 'NONE',  ( 1.000000000000000000, 0.0000000000000000000, 0.0000000000000000000 ) ) ;
#299 = EDGE_LOOP ( 'NONE', ( #50, #210, #95, #115, #240 ) ) ;
#300 = SECURITY_CLASSIFICATION_LEVEL ( 'unclassified' ) ;
#301 = CARTESIAN_POINT ( 'NONE',  ( 0.0000000000000000000, 0.0000000000000000000, -1.511036323548820000 ) ) ;
#302 = UNCERTAINTY_MEASURE_WITH_UNIT (LENGTH_MEASURE( 1.000000000000000100E-005 ), #227, 'distance_accuracy_value', 'NONE');
#303 = VERTEX_POINT ( 'NONE', #29 ) ;
#304 = VERTEX_POINT ( 'NONE', #150 ) ;
#305 = ADVANCED_FACE ( 'NONE', ( #89 ), #267, .T. ) ;
#306 = EDGE_CURVE ( 'NONE', #57, #146, #270, .T. ) ;
#307 = APPROVAL_STATUS ( 'not_yet_approved' ) ;
#308 = VERTEX_POINT ( 'NONE', #237 ) ;
#309 = CIRCLE ( 'NONE', #116, 25.15045039310324200 ) ;
#310 = ORIENTED_EDGE ( 'NONE', *, *, #220, .T. ) ;
#311 = DIRECTION ( 'NONE',  ( 1.000000000000000000, 0.0000000000000000000, 0.0000000000000000000 ) ) ;
#312 = PERSON_AND_ORGANIZATION ( #26, #214 ) ;
#313 = APPROVAL_ROLE ( '' ) ;
#314 = VECTOR ( 'NONE', #67, 1000.000000000000000 ) ;
#315 = AXIS2_PLACEMENT_3D ( 'NONE', #198, #107, #218 ) ;
#316 = DIRECTION ( 'NONE',  ( -0.0000000000000000000, -0.0000000000000000000, 1.000000000000000000 ) ) ;
#317 = CIRCLE ( 'NONE', #284, 25.39999999999999900 ) ;
#318 = APPLICATION_CONTEXT ( 'configuration controlled 3d designs of mechanical parts and assemblies' ) ;
#319 = DIRECTION ( 'NONE',  ( 0.6872810531165626200, 0.0000000000000000000, 0.7263915982629402000 ) ) ;
#320 = VERTEX_POINT ( 'NONE', #175 ) ;
#321 = CIRCLE ( 'NONE', #315, 25.39999999999999900 ) ;
#322 = CARTESIAN_POINT ( 'NONE',  ( -25.39999999999999900, 3.110602869834276900E-015, -1.247285799687192200 ) ) ;
#323 = DIRECTION ( 'NONE',  ( -1.224646799147353200E-016, -1.000000000000000000, 0.0000000000000000000 ) ) ;
#324 = APPROVAL_ROLE ( '' ) ;
#325 = EDGE_CURVE ( 'NONE', #320, #49, #221, .T. ) ;
#326 = COORDINATED_UNIVERSAL_TIME_OFFSET ( 5, 0, .BEHIND. ) ;
#327 = CARTESIAN_POINT ( 'NONE',  ( 0.0000000000000000000, 0.0000000000000000000, -1.511036323548820000 ) ) ;
#328 = DIRECTION ( 'NONE',  ( 1.000000000000000000, 0.0000000000000000000, 0.0000000000000000000 ) ) ;
#329 = DIRECTION ( 'NONE',  ( 0.0000000000000000000, 0.0000000000000000000, 1.000000000000000000 ) ) ;
#330 = DIRECTION ( 'NONE',  ( -1.000000000000000000, 0.0000000000000000000, 0.0000000000000000000 ) ) ;
#331 = LINE ( 'NONE', #109, #314 ) ;
#332 = ORIENTED_EDGE ( 'NONE', *, *, #213, .T. ) ;
#333 = CARTESIAN_POINT ( 'NONE',  ( 0.0000000000000000000, 0.0000000000000000000, 1.511036323548764500 ) ) ;
#334 = ORIENTED_EDGE ( 'NONE', *, *, #232, .T. ) ;
#335 = DIRECTION ( 'NONE',  ( -0.0000000000000000000, -0.0000000000000000000, 1.000000000000000000 ) ) ;
#336 = AXIS2_PLACEMENT_3D ( 'NONE', #69, #18, #239 ) ;
#337 = FACE_OUTER_BOUND ( 'NONE', #85, .T. ) ;
#338 = DIRECTION ( 'NONE',  ( -1.000000000000000000, 0.0000000000000000000, 0.0000000000000000000 ) ) ;
#339 = DIRECTION ( 'NONE',  ( 0.0000000000000000000, 0.0000000000000000000, -1.000000000000000000 ) ) ;
#340 = CARTESIAN_POINT ( 'NONE',  ( 0.0000000000000000000, 0.0000000000000000000, 457.1999999999999900 ) ) ;
#341 = DIRECTION ( 'NONE',  ( 1.000000000000000000, 0.0000000000000000000, 0.0000000000000000000 ) ) ;
#342 = CONICAL_SURFACE ( 'NONE', #7, 25.39999999999999900, 0.7577393052817127400 ) ;
#343 = ORIENTED_EDGE ( 'NONE', *, *, #291, .F. ) ;
#344 = DIRECTION ( 'NONE',  ( -1.000000000000000000, 0.0000000000000000000, 0.0000000000000000000 ) ) ;
#345 = CARTESIAN_POINT ( 'NONE',  ( 0.0000000000000000000, 0.0000000000000000000, -1.247285799687192200 ) ) ;
#346 = CC_DESIGN_APPROVAL ( #282, ( #51 ) ) ;
#347 = PERSON_AND_ORGANIZATION_ROLE ( 'design_owner' ) ;
#348 = AXIS2_PLACEMENT_3D ( 'NONE', #359, #197, #151 ) ;
#349 = CALENDAR_DATE ( 2015, 17, 6 ) ;
#350 = APPROVAL ( #307, 'UNSPECIFIED' ) ;
#351 = DIRECTION ( 'NONE',  ( -0.6872810531165878300, 0.0000000000000000000, -0.7263915982629163300 ) ) ;
#352 = AXIS2_PLACEMENT_3D ( 'NONE', #272, #11, #355 ) ;
#353 = DIRECTION ( 'NONE',  ( -0.0000000000000000000, -0.0000000000000000000, 1.000000000000000000 ) ) ;
#354 = CARTESIAN_POINT ( 'NONE',  ( 0.0000000000000000000, 0.0000000000000000000, 457.1999999999999900 ) ) ;
#355 = DIRECTION ( 'NONE',  ( -1.000000000000000000, 0.0000000000000000000, 0.0000000000000000000 ) ) ;
#356 = DIRECTION ( 'NONE',  ( -0.0000000000000000000, -0.0000000000000000000, 1.000000000000000000 ) ) ;
#357 = APPROVAL_PERSON_ORGANIZATION ( #145, #350, #324 ) ;
#358 = DIRECTION ( 'NONE',  ( -0.0000000000000000000, -0.0000000000000000000, 1.000000000000000000 ) ) ;
#359 = CARTESIAN_POINT ( 'NONE',  ( 0.0000000000000000000, 0.0000000000000000000, -457.1999999999999900 ) ) ;
#360 = DIRECTION ( 'NONE',  ( 0.0000000000000000000, 1.000000000000000000, 0.0000000000000000000 ) ) ;
#361 = EDGE_LOOP ( 'NONE', ( #286, #205, #172, #192 ) ) ;
#362 = CC_DESIGN_SECURITY_CLASSIFICATION ( #51, ( #190 ) ) ;
#363 = ORIENTED_EDGE ( 'NONE', *, *, #264, .T. ) ;
#364 = DIRECTION ( 'NONE',  ( 1.000000000000000000, 0.0000000000000000000, 0.0000000000000000000 ) ) ;
#365 = AXIS2_PLACEMENT_3D ( 'NONE', #340, #330, #75 ) ;
#366 = DIRECTION ( 'NONE',  ( -1.000000000000000000, 0.0000000000000000000, 0.0000000000000000000 ) ) ;
#367 = LOCAL_TIME ( 16, 48, 50.00000000000000000, #289 ) ;
ENDSEC;
END-ISO-10303-21;
