ISO-10303-21;
HEADER;
FILE_DESCRIPTION (( 'STEP AP203' ),
    '1' );
FILE_NAME ('Web Model 48427_55263.step',
    '2018-03-12T20:54:18',
    ( '' ),
    ( '' ),
    'SwSTEP 2.0',
    'SolidWorks 2016',
    '' );
FILE_SCHEMA (( 'CONFIG_CONTROL_DESIGN' ));
ENDSEC;

DATA;
#1 = DIRECTION ( 'NONE',  ( -0.0000000000000000000, 1.000000000000000000, 1.734723475976807100E-016 ) ) ;
#2 = PLANE ( 'NONE',  #76 ) ;
#3 = EDGE_LOOP ( 'NONE', ( #50, #72, #47, #12 ) ) ;
#4 = CC_DESIGN_PERSON_AND_ORGANIZATION_ASSIGNMENT ( #35, #111, ( #22 ) ) ;
#5 = ADVANCED_FACE ( 'NONE', ( #218 ), #118, .F. ) ;
#6 =( LENGTH_UNIT ( ) NAMED_UNIT ( * ) SI_UNIT ( .MILLI., .METRE. ) );
#7 = AXIS2_PLACEMENT_3D ( 'NONE', #99, #82, #62 ) ;
#8 = ORIENTED_EDGE ( 'NONE', *, *, #237, .T. ) ;
#9 = PERSON_AND_ORGANIZATION ( #219, #135 ) ;
#10 = CC_DESIGN_PERSON_AND_ORGANIZATION_ASSIGNMENT ( #193, #145, ( #61 ) ) ;
#11 = VECTOR ( 'NONE', #41, 1000.000000000000000 ) ;
#12 = ORIENTED_EDGE ( 'NONE', *, *, #183, .T. ) ;
#13 = DATE_TIME_ROLE ( 'classification_date' ) ;
#14 = SHAPE_DEFINITION_REPRESENTATION ( #113, #137 ) ;
#15 = EDGE_LOOP ( 'NONE', ( #231, #235, #184, #140 ) ) ;
#16 = LINE ( 'NONE', #153, #11 ) ;
#17 = CARTESIAN_POINT ( 'NONE',  ( -4.750000000000000000, 14.99999999999999800, -15.00000000000000000 ) ) ;
#18 = CARTESIAN_POINT ( 'NONE',  ( 4.750000000000000000, 14.99999999999999800, 15.00000000000000000 ) ) ;
#19 = EDGE_CURVE ( 'NONE', #78, #134, #67, .T. ) ;
#20 = LOCAL_TIME ( 16, 54, 18.00000000000000000, #33 ) ;
#21 = APPROVAL_DATE_TIME ( #173, #49 ) ;
#22 = SECURITY_CLASSIFICATION ( '', '', #57 ) ;
#23 = VERTEX_POINT ( 'NONE', #80 ) ;
#24 = CARTESIAN_POINT ( 'NONE',  ( 4.750000000000000000, -15.00000000000000200, 15.00000000000000500 ) ) ;
#25 = ADVANCED_FACE ( 'NONE', ( #46 ), #221, .T. ) ;
#26 = CARTESIAN_POINT ( 'NONE',  ( 4.750000000000000000, 14.99999999999999800, 15.00000000000000000 ) ) ;
#27 = COORDINATED_UNIVERSAL_TIME_OFFSET ( 5, 0, .BEHIND. ) ;
#28 = CARTESIAN_POINT ( 'NONE',  ( 4.750000000000000000, 14.99999999999999800, -15.00000000000000000 ) ) ;
#29 =( NAMED_UNIT ( * ) SI_UNIT ( $, .STERADIAN. ) SOLID_ANGLE_UNIT ( ) );
#30 = ORIENTED_EDGE ( 'NONE', *, *, #95, .T. ) ;
#31 = ORIENTED_EDGE ( 'NONE', *, *, #60, .F. ) ;
#32 = APPROVAL_STATUS ( 'not_yet_approved' ) ;
#33 = COORDINATED_UNIVERSAL_TIME_OFFSET ( 5, 0, .BEHIND. ) ;
#34 = APPROVAL_STATUS ( 'not_yet_approved' ) ;
#35 = PERSON_AND_ORGANIZATION ( #219, #135 ) ;
#36 = CC_DESIGN_SECURITY_CLASSIFICATION ( #22, ( #55 ) ) ;
#37 = LINE ( 'NONE', #48, #223 ) ;
#38 = VECTOR ( 'NONE', #141, 1000.000000000000000 ) ;
#39 = DIRECTION ( 'NONE',  ( 1.000000000000000000, 0.0000000000000000000, 0.0000000000000000000 ) ) ;
#40 = DIRECTION ( 'NONE',  ( 0.0000000000000000000, 0.0000000000000000000, -1.000000000000000000 ) ) ;
#41 = DIRECTION ( 'NONE',  ( 0.0000000000000000000, 0.0000000000000000000, -1.000000000000000000 ) ) ;
#42 = LINE ( 'NONE', #212, #180 ) ;
#43 = CARTESIAN_POINT ( 'NONE',  ( 4.750000000000000000, 14.99999999999999800, 15.00000000000000000 ) ) ;
#44 = CARTESIAN_POINT ( 'NONE',  ( 4.750000000000000000, 14.99999999999999800, -15.00000000000000000 ) ) ;
#45 = PLANE ( 'NONE',  #104 ) ;
#46 = FACE_OUTER_BOUND ( 'NONE', #105, .T. ) ;
#47 = ORIENTED_EDGE ( 'NONE', *, *, #95, .F. ) ;
#48 = CARTESIAN_POINT ( 'NONE',  ( 4.750000000000000000, 14.99999999999999800, -15.00000000000000000 ) ) ;
#49 = APPROVAL ( #32, 'UNSPECIFIED' ) ;
#50 = ORIENTED_EDGE ( 'NONE', *, *, #139, .T. ) ;
#51 = PLANE ( 'NONE',  #187 ) ;
#52 = APPLICATION_CONTEXT ( 'configuration controlled 3d designs of mechanical parts and assemblies' ) ;
#53 = PRODUCT_RELATED_PRODUCT_CATEGORY ( 'detail', '', ( #61 ) ) ;
#54 = APPLICATION_PROTOCOL_DEFINITION ( 'international standard', 'config_control_design', 1994, #132 ) ;
#55 = PRODUCT_DEFINITION_FORMATION_WITH_SPECIFIED_SOURCE ( 'ANY', '', #61, .NOT_KNOWN. ) ;
#56 = APPROVAL_ROLE ( '' ) ;
#57 = SECURITY_CLASSIFICATION_LEVEL ( 'unclassified' ) ;
#58 = ORIENTED_EDGE ( 'NONE', *, *, #149, .T. ) ;
#59 = APPROVAL_ROLE ( '' ) ;
#60 = EDGE_CURVE ( 'NONE', #177, #78, #16, .T. ) ;
#61 = PRODUCT ( 'Web Model 48427_55263', 'Web Model 48427_55263', '', ( #129 ) ) ;
#62 = DIRECTION ( 'NONE',  ( 0.0000000000000000000, 0.0000000000000000000, -1.000000000000000000 ) ) ;
#63 = COORDINATED_UNIVERSAL_TIME_OFFSET ( 5, 0, .BEHIND. ) ;
#64 = VECTOR ( 'NONE', #229, 1000.000000000000000 ) ;
#65 = ORIENTED_EDGE ( 'NONE', *, *, #175, .F. ) ;
#66 = DIRECTION ( 'NONE',  ( 0.0000000000000000000, -0.0000000000000000000, -1.000000000000000000 ) ) ;
#67 = LINE ( 'NONE', #17, #234 ) ;
#68 = ADVANCED_FACE ( 'NONE', ( #86 ), #2, .F. ) ;
#69 = DIRECTION ( 'NONE',  ( 0.0000000000000000000, -0.0000000000000000000, 1.000000000000000000 ) ) ;
#70 = DIRECTION ( 'NONE',  ( 0.0000000000000000000, 0.0000000000000000000, -1.000000000000000000 ) ) ;
#71 = LINE ( 'NONE', #191, #222 ) ;
#72 = ORIENTED_EDGE ( 'NONE', *, *, #85, .F. ) ;
#73 = DIRECTION ( 'NONE',  ( -1.000000000000000000, -0.0000000000000000000, -0.0000000000000000000 ) ) ;
#74 = ORIENTED_EDGE ( 'NONE', *, *, #85, .T. ) ;
#75 = CC_DESIGN_APPROVAL ( #49, ( #182 ) ) ;
#76 = AXIS2_PLACEMENT_3D ( 'NONE', #18, #169, #66 ) ;
#77 = LOCAL_TIME ( 16, 54, 18.00000000000000000, #165 ) ;
#78 = VERTEX_POINT ( 'NONE', #166 ) ;
#79 =( GEOMETRIC_REPRESENTATION_CONTEXT ( 3 ) GLOBAL_UNCERTAINTY_ASSIGNED_CONTEXT ( ( #200 ) ) GLOBAL_UNIT_ASSIGNED_CONTEXT ( ( #6, #211, #29 ) ) REPRESENTATION_CONTEXT ( 'NONE', 'WORKASPACE' ) );
#80 = CARTESIAN_POINT ( 'NONE',  ( 4.750000000000000000, -15.00000000000000200, 15.00000000000000500 ) ) ;
#81 = LINE ( 'NONE', #24, #127 ) ;
#82 = DIRECTION ( 'NONE',  ( 1.000000000000000000, 0.0000000000000000000, 0.0000000000000000000 ) ) ;
#83 = EDGE_LOOP ( 'NONE', ( #106, #65, #157, #101 ) ) ;
#84 = CARTESIAN_POINT ( 'NONE',  ( 4.750000000000000000, -15.00000000000000200, -15.00000000000000500 ) ) ;
#85 = EDGE_CURVE ( 'NONE', #227, #215, #226, .T. ) ;
#86 = FACE_OUTER_BOUND ( 'NONE', #3, .T. ) ;
#87 = ORIENTED_EDGE ( 'NONE', *, *, #216, .T. ) ;
#88 = DIRECTION ( 'NONE',  ( -0.0000000000000000000, 1.000000000000000000, 1.734723475976807100E-016 ) ) ;
#89 = DIRECTION ( 'NONE',  ( 0.0000000000000000000, -1.000000000000000000, -1.734723475976807100E-016 ) ) ;
#90 = APPROVAL_DATE_TIME ( #217, #195 ) ;
#91 = DIRECTION ( 'NONE',  ( 1.000000000000000000, 0.0000000000000000000, 0.0000000000000000000 ) ) ;
#92 = DIRECTION ( 'NONE',  ( 0.0000000000000000000, -1.000000000000000000, 1.734723475976807100E-016 ) ) ;
#93 = FACE_OUTER_BOUND ( 'NONE', #83, .T. ) ;
#94 = ORIENTED_EDGE ( 'NONE', *, *, #19, .F. ) ;
#95 = EDGE_CURVE ( 'NONE', #174, #227, #203, .T. ) ;
#96 = VERTEX_POINT ( 'NONE', #155 ) ;
#97 = ORIENTED_EDGE ( 'NONE', *, *, #170, .T. ) ;
#98 = LOCAL_TIME ( 16, 54, 18.00000000000000000, #63 ) ;
#99 = CARTESIAN_POINT ( 'NONE',  ( 4.750000000000000000, 0.0000000000000000000, 0.0000000000000000000 ) ) ;
#100 = DIRECTION ( 'NONE',  ( 0.0000000000000000000, -1.734723475976807100E-016, -1.000000000000000000 ) ) ;
#101 = ORIENTED_EDGE ( 'NONE', *, *, #210, .T. ) ;
#102 = DIRECTION ( 'NONE',  ( -1.000000000000000000, -0.0000000000000000000, -0.0000000000000000000 ) ) ;
#103 = CARTESIAN_POINT ( 'NONE',  ( 4.750000000000000000, -15.00000000000000200, 15.00000000000000500 ) ) ;
#104 = AXIS2_PLACEMENT_3D ( 'NONE', #224, #100, #123 ) ;
#105 = EDGE_LOOP ( 'NONE', ( #8, #97, #58, #30 ) ) ;
#106 = ORIENTED_EDGE ( 'NONE', *, *, #60, .T. ) ;
#107 = CARTESIAN_POINT ( 'NONE',  ( 4.750000000000000000, 14.99999999999999800, -15.00000000000000000 ) ) ;
#108 = LOCAL_TIME ( 16, 54, 18.00000000000000000, #27 ) ;
#109 = VECTOR ( 'NONE', #73, 1000.000000000000000 ) ;
#110 = APPROVAL_PERSON_ORGANIZATION ( #133, #144, #112 ) ;
#111 = PERSON_AND_ORGANIZATION_ROLE ( 'classification_officer' ) ;
#112 = APPROVAL_ROLE ( '' ) ;
#113 = PRODUCT_DEFINITION_SHAPE ( 'NONE', 'NONE',  #182 ) ;
#114 = CC_DESIGN_PERSON_AND_ORGANIZATION_ASSIGNMENT ( #146, #213, ( #55 ) ) ;
#115 = VECTOR ( 'NONE', #198, 1000.000000000000000 ) ;
#116 = AXIS2_PLACEMENT_3D ( 'NONE', #103, #207, #69 ) ;
#117 = DESIGN_CONTEXT ( 'detailed design', #132, 'design' ) ;
#118 = PLANE ( 'NONE',  #121 ) ;
#119 = COORDINATED_UNIVERSAL_TIME_OFFSET ( 5, 0, .BEHIND. ) ;
#120 = CC_DESIGN_APPROVAL ( #195, ( #55 ) ) ;
#121 = AXIS2_PLACEMENT_3D ( 'NONE', #186, #39, #40 ) ;
#122 = CARTESIAN_POINT ( 'NONE',  ( -4.750000000000000000, 14.99999999999999800, 15.00000000000000000 ) ) ;
#123 = DIRECTION ( 'NONE',  ( 0.0000000000000000000, 1.000000000000000000, -1.734723475976807100E-016 ) ) ;
#124 = ORIENTED_EDGE ( 'NONE', *, *, #210, .F. ) ;
#125 = ADVANCED_FACE ( 'NONE', ( #93 ), #205, .F. ) ;
#126 = CALENDAR_DATE ( 2018, 12, 3 ) ;
#127 = VECTOR ( 'NONE', #70, 1000.000000000000000 ) ;
#128 = CARTESIAN_POINT ( 'NONE',  ( -4.750000000000000000, 14.99999999999999800, 15.00000000000000000 ) ) ;
#129 = MECHANICAL_CONTEXT ( 'NONE', #52, 'mechanical' ) ;
#130 = CALENDAR_DATE ( 2018, 12, 3 ) ;
#131 = VECTOR ( 'NONE', #102, 1000.000000000000000 ) ;
#132 = APPLICATION_CONTEXT ( 'configuration controlled 3d designs of mechanical parts and assemblies' ) ;
#133 = PERSON_AND_ORGANIZATION ( #219, #135 ) ;
#134 = VERTEX_POINT ( 'NONE', #228 ) ;
#135 = ORGANIZATION ( 'UNSPECIFIED', 'UNSPECIFIED', '' ) ;
#136 = CC_DESIGN_PERSON_AND_ORGANIZATION_ASSIGNMENT ( #163, #202, ( #182 ) ) ;
#137 = ADVANCED_BREP_SHAPE_REPRESENTATION ( 'Web Model 48427_55263', ( #164, #236 ), #79 ) ;
#138 = ADVANCED_FACE ( 'NONE', ( #172 ), #45, .F. ) ;
#139 = EDGE_CURVE ( 'NONE', #134, #215, #194, .T. ) ;
#140 = ORIENTED_EDGE ( 'NONE', *, *, #175, .T. ) ;
#141 = DIRECTION ( 'NONE',  ( -0.0000000000000000000, -0.0000000000000000000, 1.000000000000000000 ) ) ;
#142 = CALENDAR_DATE ( 2018, 12, 3 ) ;
#143 = EDGE_LOOP ( 'NONE', ( #181, #168, #94, #31 ) ) ;
#144 = APPROVAL ( #179, 'UNSPECIFIED' ) ;
#145 = PERSON_AND_ORGANIZATION_ROLE ( 'design_owner' ) ;
#146 = PERSON_AND_ORGANIZATION ( #219, #135 ) ;
#147 = APPROVAL_PERSON_ORGANIZATION ( #197, #195, #59 ) ;
#148 = PERSON_AND_ORGANIZATION ( #219, #135 ) ;
#149 = EDGE_CURVE ( 'NONE', #96, #174, #37, .T. ) ;
#150 = DATE_AND_TIME ( #192, #108 ) ;
#151 = FACE_OUTER_BOUND ( 'NONE', #15, .T. ) ;
#152 = LOCAL_TIME ( 16, 54, 18.00000000000000000, #119 ) ;
#153 = CARTESIAN_POINT ( 'NONE',  ( -4.750000000000000000, -15.00000000000000200, 15.00000000000000500 ) ) ;
#154 = CC_DESIGN_DATE_AND_TIME_ASSIGNMENT ( #162, #13, ( #22 ) ) ;
#155 = CARTESIAN_POINT ( 'NONE',  ( 4.750000000000000000, -15.00000000000000200, -15.00000000000000500 ) ) ;
#156 = CARTESIAN_POINT ( 'NONE',  ( -4.750000000000000000, -15.00000000000000200, 15.00000000000000500 ) ) ;
#157 = ORIENTED_EDGE ( 'NONE', *, *, #170, .F. ) ;
#158 = DIRECTION ( 'NONE',  ( 0.0000000000000000000, -1.734723475976807100E-016, 1.000000000000000000 ) ) ;
#159 = CC_DESIGN_APPROVAL ( #144, ( #22 ) ) ;
#160 = LINE ( 'NONE', #26, #115 ) ;
#161 = DIRECTION ( 'NONE',  ( -1.000000000000000000, -0.0000000000000000000, -0.0000000000000000000 ) ) ;
#162 = DATE_AND_TIME ( #126, #20 ) ;
#163 = PERSON_AND_ORGANIZATION ( #219, #135 ) ;
#164 = MANIFOLD_SOLID_BREP ( 'Boss-Extrude1', #188 ) ;
#165 = COORDINATED_UNIVERSAL_TIME_OFFSET ( 5, 0, .BEHIND. ) ;
#166 = CARTESIAN_POINT ( 'NONE',  ( -4.750000000000000000, -15.00000000000000200, -15.00000000000000500 ) ) ;
#167 = CC_DESIGN_PERSON_AND_ORGANIZATION_ASSIGNMENT ( #9, #178, ( #55 ) ) ;
#168 = ORIENTED_EDGE ( 'NONE', *, *, #139, .F. ) ;
#169 = DIRECTION ( 'NONE',  ( 0.0000000000000000000, -1.000000000000000000, 0.0000000000000000000 ) ) ;
#170 = EDGE_CURVE ( 'NONE', #23, #96, #81, .T. ) ;
#171 = CALENDAR_DATE ( 2018, 12, 3 ) ;
#172 = FACE_OUTER_BOUND ( 'NONE', #209, .T. ) ;
#173 = DATE_AND_TIME ( #142, #152 ) ;
#174 = VERTEX_POINT ( 'NONE', #44 ) ;
#175 = EDGE_CURVE ( 'NONE', #96, #78, #208, .T. ) ;
#176 = DIRECTION ( 'NONE',  ( 0.0000000000000000000, 0.0000000000000000000, 1.000000000000000000 ) ) ;
#177 = VERTEX_POINT ( 'NONE', #156 ) ;
#178 = PERSON_AND_ORGANIZATION_ROLE ( 'design_supplier' ) ;
#179 = APPROVAL_STATUS ( 'not_yet_approved' ) ;
#180 = VECTOR ( 'NONE', #92, 1000.000000000000000 ) ;
#181 = ORIENTED_EDGE ( 'NONE', *, *, #216, .F. ) ;
#182 = PRODUCT_DEFINITION ( 'UNKNOWN', '', #55, #117 ) ;
#183 = EDGE_CURVE ( 'NONE', #174, #134, #233, .T. ) ;
#184 = ORIENTED_EDGE ( 'NONE', *, *, #149, .F. ) ;
#185 = APPROVAL_DATE_TIME ( #220, #144 ) ;
#186 = CARTESIAN_POINT ( 'NONE',  ( -4.750000000000000000, 0.0000000000000000000, 0.0000000000000000000 ) ) ;
#187 = AXIS2_PLACEMENT_3D ( 'NONE', #107, #158, #89 ) ;
#188 = CLOSED_SHELL ( 'NONE', ( #138, #125, #225, #68, #25, #5 ) ) ;
#189 = CC_DESIGN_DATE_AND_TIME_ASSIGNMENT ( #150, #201, ( #182 ) ) ;
#190 = ORIENTED_EDGE ( 'NONE', *, *, #237, .F. ) ;
#191 = CARTESIAN_POINT ( 'NONE',  ( 4.750000000000000000, -15.00000000000000200, 15.00000000000000500 ) ) ;
#192 = CALENDAR_DATE ( 2018, 12, 3 ) ;
#193 = PERSON_AND_ORGANIZATION ( #219, #135 ) ;
#194 = LINE ( 'NONE', #122, #38 ) ;
#195 = APPROVAL ( #34, 'UNSPECIFIED' ) ;
#196 = DIRECTION ( 'NONE',  ( -1.000000000000000000, -0.0000000000000000000, -0.0000000000000000000 ) ) ;
#197 = PERSON_AND_ORGANIZATION ( #219, #135 ) ;
#198 = DIRECTION ( 'NONE',  ( 0.0000000000000000000, -1.000000000000000000, 1.734723475976807100E-016 ) ) ;
#199 = APPLICATION_PROTOCOL_DEFINITION ( 'international standard', 'config_control_design', 1994, #52 ) ;
#200 = UNCERTAINTY_MEASURE_WITH_UNIT (LENGTH_MEASURE( 1.000000000000000100E-005 ), #6, 'distance_accuracy_value', 'NONE');
#201 = DATE_TIME_ROLE ( 'creation_date' ) ;
#202 = PERSON_AND_ORGANIZATION_ROLE ( 'creator' ) ;
#203 = LINE ( 'NONE', #204, #64 ) ;
#204 = CARTESIAN_POINT ( 'NONE',  ( 4.750000000000000000, 14.99999999999999800, 15.00000000000000000 ) ) ;
#205 = PLANE ( 'NONE',  #116 ) ;
#206 = APPROVAL_PERSON_ORGANIZATION ( #148, #49, #56 ) ;
#207 = DIRECTION ( 'NONE',  ( -0.0000000000000000000, 1.000000000000000000, 0.0000000000000000000 ) ) ;
#208 = LINE ( 'NONE', #84, #109 ) ;
#209 = EDGE_LOOP ( 'NONE', ( #87, #124, #190, #74 ) ) ;
#210 = EDGE_CURVE ( 'NONE', #23, #177, #71, .T. ) ;
#211 =( NAMED_UNIT ( * ) PLANE_ANGLE_UNIT ( ) SI_UNIT ( $, .RADIAN. ) );
#212 = CARTESIAN_POINT ( 'NONE',  ( -4.750000000000000000, 14.99999999999999800, 15.00000000000000000 ) ) ;
#213 = PERSON_AND_ORGANIZATION_ROLE ( 'creator' ) ;
#214 = VECTOR ( 'NONE', #196, 1000.000000000000000 ) ;
#215 = VERTEX_POINT ( 'NONE', #128 ) ;
#216 = EDGE_CURVE ( 'NONE', #215, #177, #42, .T. ) ;
#217 = DATE_AND_TIME ( #130, #98 ) ;
#218 = FACE_OUTER_BOUND ( 'NONE', #143, .T. ) ;
#219 = PERSON ( 'UNSPECIFIED', 'UNSPECIFIED', 'UNSPECIFIED', ('UNSPECIFIED'), ('UNSPECIFIED'), ('UNSPECIFIED') ) ;
#220 = DATE_AND_TIME ( #171, #77 ) ;
#221 = PLANE ( 'NONE',  #7 ) ;
#222 = VECTOR ( 'NONE', #161, 1000.000000000000000 ) ;
#223 = VECTOR ( 'NONE', #88, 1000.000000000000000 ) ;
#224 = CARTESIAN_POINT ( 'NONE',  ( 4.750000000000000000, 14.99999999999999800, 15.00000000000000000 ) ) ;
#225 = ADVANCED_FACE ( 'NONE', ( #151 ), #51, .F. ) ;
#226 = LINE ( 'NONE', #43, #131 ) ;
#227 = VERTEX_POINT ( 'NONE', #230 ) ;
#228 = CARTESIAN_POINT ( 'NONE',  ( -4.750000000000000000, 14.99999999999999800, -15.00000000000000000 ) ) ;
#229 = DIRECTION ( 'NONE',  ( -0.0000000000000000000, -0.0000000000000000000, 1.000000000000000000 ) ) ;
#230 = CARTESIAN_POINT ( 'NONE',  ( 4.750000000000000000, 14.99999999999999800, 15.00000000000000000 ) ) ;
#231 = ORIENTED_EDGE ( 'NONE', *, *, #19, .T. ) ;
#232 = CARTESIAN_POINT ( 'NONE',  ( 0.0000000000000000000, 0.0000000000000000000, 0.0000000000000000000 ) ) ;
#233 = LINE ( 'NONE', #28, #214 ) ;
#234 = VECTOR ( 'NONE', #1, 1000.000000000000000 ) ;
#235 = ORIENTED_EDGE ( 'NONE', *, *, #183, .F. ) ;
#236 = AXIS2_PLACEMENT_3D ( 'NONE', #232, #176, #91 ) ;
#237 = EDGE_CURVE ( 'NONE', #227, #23, #160, .T. ) ;
ENDSEC;
END-ISO-10303-21;
