ISO-10303-21;
HEADER;
FILE_DESCRIPTION (( 'STEP AP203' ),
    '1' );
FILE_NAME ('Web Model 22036_22036.step',
    '2022-06-08T15:08:59',
    ( '' ),
    ( '' ),
    'SwSTEP 2.0',
    'SolidWorks 2021',
    '' );
FILE_SCHEMA (( 'CONFIG_CONTROL_DESIGN' ));
ENDSEC;

DATA;
#1 = DIRECTION ( 'NONE',  ( -1.000000000000000000, 0.000000000000000000, 0.000000000000000000 ) ) ;
#2 = APPLICATION_CONTEXT ( 'configuration controlled 3d designs of mechanical parts and assemblies' ) ;
#3 = DIRECTION ( 'NONE',  ( 1.000000000000000000, 0.000000000000000000, 0.000000000000000000 ) ) ;
#4 = DIRECTION ( 'NONE',  ( 1.000000000000000000, 0.000000000000000000, -0.000000000000000000 ) ) ;
#5 = PLANE ( 'NONE',  #175 ) ;
#6 = AXIS2_PLACEMENT_3D ( 'NONE', #70, #31, #94 ) ;
#7 = ORIENTED_EDGE ( 'NONE', *, *, #62, .F. ) ;
#8 = CARTESIAN_POINT ( 'NONE',  ( 0.000000000000000000, 0.000000000000000000, 0.000000000000000000 ) ) ;
#9 = ORIENTED_EDGE ( 'NONE', *, *, #170, .T. ) ;
#10 = CALENDAR_DATE ( 2022, 8, 6 ) ;
#11 = PERSON_AND_ORGANIZATION ( #39, #95 ) ;
#12 = CIRCLE ( 'NONE', #132, 2.499999999999999556 ) ;
#13 = AXIS2_PLACEMENT_3D ( 'NONE', #124, #134, #3 ) ;
#14 = DIRECTION ( 'NONE',  ( 1.000000000000000000, 0.000000000000000000, 0.000000000000000000 ) ) ;
#15 = LINE ( 'NONE', #55, #114 ) ;
#16 = PERSON_AND_ORGANIZATION_ROLE ( 'design_owner' ) ;
#17 = PRODUCT_RELATED_PRODUCT_CATEGORY ( 'detail', '', ( #100 ) ) ;
#18 = CARTESIAN_POINT ( 'NONE',  ( 0.000000000000000000, 0.000000000000000000, 0.2000000000000000111 ) ) ;
#19 = DIRECTION ( 'NONE',  ( 0.000000000000000000, 0.000000000000000000, 1.000000000000000000 ) ) ;
#20 = FACE_OUTER_BOUND ( 'NONE', #153, .T. ) ;
#21 = EDGE_CURVE ( 'NONE', #22, #97, #168, .T. ) ;
#22 = VERTEX_POINT ( 'NONE', #171 ) ;
#23 = CC_DESIGN_APPROVAL ( #136, ( #57 ) ) ;
#24 = DATE_AND_TIME ( #77, #116 ) ;
#25 = ADVANCED_FACE ( 'NONE', ( #20 ), #47, .T. ) ;
#26 = DATE_TIME_ROLE ( 'classification_date' ) ;
#27 = CARTESIAN_POINT ( 'NONE',  ( -2.499999999999999556, 0.000000000000000000, 0.2000000000000000111 ) ) ;
#28 = CC_DESIGN_PERSON_AND_ORGANIZATION_ASSIGNMENT ( #144, #51, ( #57 ) ) ;
#29 = CYLINDRICAL_SURFACE ( 'NONE', #149, 2.499999999999999556 ) ;
#30 = AXIS2_PLACEMENT_3D ( 'NONE', #18, #137, #111 ) ;
#31 = DIRECTION ( 'NONE',  ( 0.000000000000000000, 0.000000000000000000, 1.000000000000000000 ) ) ;
#32 = PERSON_AND_ORGANIZATION_ROLE ( 'creator' ) ;
#33 = DIRECTION ( 'NONE',  ( 0.000000000000000000, 0.000000000000000000, 1.000000000000000000 ) ) ;
#34 = ORIENTED_EDGE ( 'NONE', *, *, #86, .F. ) ;
#35 = UNCERTAINTY_MEASURE_WITH_UNIT (LENGTH_MEASURE( 1.000000000000000082E-05 ), #42, 'distance_accuracy_value', 'NONE');
#36 =( GEOMETRIC_REPRESENTATION_CONTEXT ( 3 ) GLOBAL_UNCERTAINTY_ASSIGNED_CONTEXT ( ( #35 ) ) GLOBAL_UNIT_ASSIGNED_CONTEXT ( ( #42, #41, #138 ) ) REPRESENTATION_CONTEXT ( 'NONE', 'WORKASPACE' ) );
#37 = PERSON_AND_ORGANIZATION ( #39, #95 ) ;
#38 = CALENDAR_DATE ( 2022, 8, 6 ) ;
#39 = PERSON ( 'UNSPECIFIED', 'UNSPECIFIED', 'UNSPECIFIED', ('UNSPECIFIED'), ('UNSPECIFIED'), ('UNSPECIFIED') ) ;
#40 = CC_DESIGN_DATE_AND_TIME_ASSIGNMENT ( #103, #50, ( #99 ) ) ;
#41 =( NAMED_UNIT ( * ) PLANE_ANGLE_UNIT ( ) SI_UNIT ( $, .RADIAN. ) );
#42 =( LENGTH_UNIT ( ) NAMED_UNIT ( * ) SI_UNIT ( .MILLI., .METRE. ) );
#43 = LOCAL_TIME ( 11, 8, 59.00000000000000000, #112 ) ;
#44 = CARTESIAN_POINT ( 'NONE',  ( 2.499999999999999556, 3.061616997868382648E-16, 0.000000000000000000 ) ) ;
#45 = APPLICATION_PROTOCOL_DEFINITION ( 'international standard', 'config_control_design', 1994, #2 ) ;
#46 = ORIENTED_EDGE ( 'NONE', *, *, #64, .T. ) ;
#47 = CYLINDRICAL_SURFACE ( 'NONE', #162, 2.499999999999999556 ) ;
#48 = APPROVAL ( #65, 'UNSPECIFIED' ) ;
#49 = DATE_AND_TIME ( #10, #157 ) ;
#50 = DATE_TIME_ROLE ( 'creation_date' ) ;
#51 = PERSON_AND_ORGANIZATION_ROLE ( 'design_supplier' ) ;
#52 = APPROVAL_DATE_TIME ( #24, #48 ) ;
#53 = LOCAL_TIME ( 11, 8, 59.00000000000000000, #172 ) ;
#54 = MECHANICAL_CONTEXT ( 'NONE', #2, 'mechanical' ) ;
#55 = CARTESIAN_POINT ( 'NONE',  ( -2.499999999999999556, 0.000000000000000000, 0.2000000000000000111 ) ) ;
#56 = PERSON_AND_ORGANIZATION ( #39, #95 ) ;
#57 = PRODUCT_DEFINITION_FORMATION_WITH_SPECIFIED_SOURCE ( 'ANY', '', #100, .NOT_KNOWN. ) ;
#58 = CC_DESIGN_APPROVAL ( #48, ( #140 ) ) ;
#59 = ORIENTED_EDGE ( 'NONE', *, *, #155, .T. ) ;
#60 = ORIENTED_EDGE ( 'NONE', *, *, #64, .F. ) ;
#61 = EDGE_LOOP ( 'NONE', ( #118, #59 ) ) ;
#62 = EDGE_CURVE ( 'NONE', #87, #97, #85, .T. ) ;
#63 = PRODUCT_DEFINITION_SHAPE ( 'NONE', 'NONE',  #99 ) ;
#64 = EDGE_CURVE ( 'NONE', #97, #87, #12, .T. ) ;
#65 = APPROVAL_STATUS ( 'not_yet_approved' ) ;
#66 = VECTOR ( 'NONE', #115, 1000.000000000000000 ) ;
#67 = LOCAL_TIME ( 11, 8, 59.00000000000000000, #107 ) ;
#68 = FACE_OUTER_BOUND ( 'NONE', #61, .T. ) ;
#69 = ADVANCED_FACE ( 'NONE', ( #80 ), #29, .T. ) ;
#70 = CARTESIAN_POINT ( 'NONE',  ( 0.000000000000000000, 0.000000000000000000, 0.000000000000000000 ) ) ;
#71 = APPLICATION_PROTOCOL_DEFINITION ( 'international standard', 'config_control_design', 1994, #160 ) ;
#72 = DIRECTION ( 'NONE',  ( -0.000000000000000000, -0.000000000000000000, -1.000000000000000000 ) ) ;
#73 = EDGE_LOOP ( 'NONE', ( #169, #34, #9, #84 ) ) ;
#74 = ORIENTED_EDGE ( 'NONE', *, *, #155, .F. ) ;
#75 = COORDINATED_UNIVERSAL_TIME_OFFSET ( 5, 0, .BEHIND. ) ;
#76 = APPROVAL_STATUS ( 'not_yet_approved' ) ;
#77 = CALENDAR_DATE ( 2022, 8, 6 ) ;
#78 = APPROVAL_PERSON_ORGANIZATION ( #174, #48, #130 ) ;
#79 = CC_DESIGN_DATE_AND_TIME_ASSIGNMENT ( #49, #26, ( #140 ) ) ;
#80 = FACE_OUTER_BOUND ( 'NONE', #73, .T. ) ;
#81 = PERSON_AND_ORGANIZATION ( #39, #95 ) ;
#82 = CARTESIAN_POINT ( 'NONE',  ( 0.000000000000000000, 0.000000000000000000, 0.2000000000000000111 ) ) ;
#83 = APPROVAL_ROLE ( '' ) ;
#84 = ORIENTED_EDGE ( 'NONE', *, *, #62, .T. ) ;
#85 = CIRCLE ( 'NONE', #154, 2.499999999999999556 ) ;
#86 = EDGE_CURVE ( 'NONE', #128, #22, #102, .T. ) ;
#87 = VERTEX_POINT ( 'NONE', #93 ) ;
#88 = CARTESIAN_POINT ( 'NONE',  ( 2.499999999999999556, 3.061616997868382648E-16, 0.2000000000000000111 ) ) ;
#89 = CIRCLE ( 'NONE', #13, 2.499999999999999556 ) ;
#90 = SECURITY_CLASSIFICATION_LEVEL ( 'unclassified' ) ;
#91 = CC_DESIGN_PERSON_AND_ORGANIZATION_ASSIGNMENT ( #173, #129, ( #57 ) ) ;
#92 = DATE_AND_TIME ( #38, #53 ) ;
#93 = CARTESIAN_POINT ( 'NONE',  ( -2.499999999999999556, 0.000000000000000000, 0.000000000000000000 ) ) ;
#94 = DIRECTION ( 'NONE',  ( 1.000000000000000000, 0.000000000000000000, 0.000000000000000000 ) ) ;
#95 = ORGANIZATION ( 'UNSPECIFIED', 'UNSPECIFIED', '' ) ;
#96 = APPROVAL_DATE_TIME ( #150, #141 ) ;
#97 = VERTEX_POINT ( 'NONE', #44 ) ;
#98 = DIRECTION ( 'NONE',  ( 0.000000000000000000, 0.000000000000000000, 1.000000000000000000 ) ) ;
#99 = PRODUCT_DEFINITION ( 'UNKNOWN', '', #57, #120 ) ;
#100 = PRODUCT ( 'Web Model 22036_22036', 'Web Model 22036_22036', '', ( #54 ) ) ;
#101 = DIRECTION ( 'NONE',  ( -1.000000000000000000, 0.000000000000000000, 0.000000000000000000 ) ) ;
#102 = CIRCLE ( 'NONE', #30, 2.499999999999999556 ) ;
#103 = DATE_AND_TIME ( #122, #67 ) ;
#104 = SHAPE_DEFINITION_REPRESENTATION ( #63, #158 ) ;
#105 = MANIFOLD_SOLID_BREP ( 'Boss-Extrude1', #110 ) ;
#106 = CC_DESIGN_SECURITY_CLASSIFICATION ( #140, ( #57 ) ) ;
#107 = COORDINATED_UNIVERSAL_TIME_OFFSET ( 5, 0, .BEHIND. ) ;
#108 = DIRECTION ( 'NONE',  ( 1.000000000000000000, 0.000000000000000000, -0.000000000000000000 ) ) ;
#109 = DIRECTION ( 'NONE',  ( -0.000000000000000000, -0.000000000000000000, -1.000000000000000000 ) ) ;
#110 = CLOSED_SHELL ( 'NONE', ( #25, #69, #148, #145 ) ) ;
#111 = DIRECTION ( 'NONE',  ( 1.000000000000000000, 0.000000000000000000, 0.000000000000000000 ) ) ;
#112 = COORDINATED_UNIVERSAL_TIME_OFFSET ( 5, 0, .BEHIND. ) ;
#113 = CC_DESIGN_PERSON_AND_ORGANIZATION_ASSIGNMENT ( #37, #143, ( #140 ) ) ;
#114 = VECTOR ( 'NONE', #146, 1000.000000000000000 ) ;
#115 = DIRECTION ( 'NONE',  ( -0.000000000000000000, -0.000000000000000000, -1.000000000000000000 ) ) ;
#116 = LOCAL_TIME ( 11, 8, 59.00000000000000000, #75 ) ;
#117 = ORIENTED_EDGE ( 'NONE', *, *, #170, .F. ) ;
#118 = ORIENTED_EDGE ( 'NONE', *, *, #86, .T. ) ;
#119 = EDGE_LOOP ( 'NONE', ( #7, #60 ) ) ;
#120 = DESIGN_CONTEXT ( 'detailed design', #160, 'design' ) ;
#121 = APPROVAL_DATE_TIME ( #92, #136 ) ;
#122 = CALENDAR_DATE ( 2022, 8, 6 ) ;
#123 = AXIS2_PLACEMENT_3D ( 'NONE', #82, #19, #4 ) ;
#124 = CARTESIAN_POINT ( 'NONE',  ( 0.000000000000000000, 0.000000000000000000, 0.2000000000000000111 ) ) ;
#125 = CARTESIAN_POINT ( 'NONE',  ( 0.000000000000000000, 0.000000000000000000, 0.2000000000000000111 ) ) ;
#126 = CARTESIAN_POINT ( 'NONE',  ( 0.000000000000000000, 0.000000000000000000, 0.2000000000000000111 ) ) ;
#127 = CC_DESIGN_APPROVAL ( #141, ( #99 ) ) ;
#128 = VERTEX_POINT ( 'NONE', #27 ) ;
#129 = PERSON_AND_ORGANIZATION_ROLE ( 'creator' ) ;
#130 = APPROVAL_ROLE ( '' ) ;
#131 = CC_DESIGN_PERSON_AND_ORGANIZATION_ASSIGNMENT ( #81, #16, ( #100 ) ) ;
#132 = AXIS2_PLACEMENT_3D ( 'NONE', #167, #33, #14 ) ;
#133 = APPROVAL_PERSON_ORGANIZATION ( #56, #141, #83 ) ;
#134 = DIRECTION ( 'NONE',  ( 0.000000000000000000, 0.000000000000000000, 1.000000000000000000 ) ) ;
#135 = CARTESIAN_POINT ( 'NONE',  ( 0.000000000000000000, 0.000000000000000000, 0.000000000000000000 ) ) ;
#136 = APPROVAL ( #76, 'UNSPECIFIED' ) ;
#137 = DIRECTION ( 'NONE',  ( 0.000000000000000000, 0.000000000000000000, 1.000000000000000000 ) ) ;
#138 =( NAMED_UNIT ( * ) SI_UNIT ( $, .STERADIAN. ) SOLID_ANGLE_UNIT ( ) );
#139 = ORIENTED_EDGE ( 'NONE', *, *, #21, .T. ) ;
#140 = SECURITY_CLASSIFICATION ( '', '', #90 ) ;
#141 = APPROVAL ( #166, 'UNSPECIFIED' ) ;
#142 = COORDINATED_UNIVERSAL_TIME_OFFSET ( 5, 0, .BEHIND. ) ;
#143 = PERSON_AND_ORGANIZATION_ROLE ( 'classification_officer' ) ;
#144 = PERSON_AND_ORGANIZATION ( #39, #95 ) ;
#145 = ADVANCED_FACE ( 'NONE', ( #163 ), #5, .F. ) ;
#146 = DIRECTION ( 'NONE',  ( -0.000000000000000000, -0.000000000000000000, -1.000000000000000000 ) ) ;
#147 = DIRECTION ( 'NONE',  ( 0.000000000000000000, 0.000000000000000000, 1.000000000000000000 ) ) ;
#148 = ADVANCED_FACE ( 'NONE', ( #68 ), #161, .T. ) ;
#149 = AXIS2_PLACEMENT_3D ( 'NONE', #125, #109, #1 ) ;
#150 = DATE_AND_TIME ( #164, #43 ) ;
#151 = PERSON_AND_ORGANIZATION ( #39, #95 ) ;
#152 = CC_DESIGN_PERSON_AND_ORGANIZATION_ASSIGNMENT ( #151, #32, ( #99 ) ) ;
#153 = EDGE_LOOP ( 'NONE', ( #74, #139, #46, #117 ) ) ;
#154 = AXIS2_PLACEMENT_3D ( 'NONE', #8, #98, #156 ) ;
#155 = EDGE_CURVE ( 'NONE', #22, #128, #89, .T. ) ;
#156 = DIRECTION ( 'NONE',  ( 1.000000000000000000, 0.000000000000000000, 0.000000000000000000 ) ) ;
#157 = LOCAL_TIME ( 11, 8, 59.00000000000000000, #142 ) ;
#158 = ADVANCED_BREP_SHAPE_REPRESENTATION ( 'Web Model 22036_22036', ( #105, #6 ), #36 ) ;
#159 = APPROVAL_ROLE ( '' ) ;
#160 = APPLICATION_CONTEXT ( 'configuration controlled 3d designs of mechanical parts and assemblies' ) ;
#161 = PLANE ( 'NONE',  #123 ) ;
#162 = AXIS2_PLACEMENT_3D ( 'NONE', #126, #72, #101 ) ;
#163 = FACE_OUTER_BOUND ( 'NONE', #119, .T. ) ;
#164 = CALENDAR_DATE ( 2022, 8, 6 ) ;
#165 = APPROVAL_PERSON_ORGANIZATION ( #11, #136, #159 ) ;
#166 = APPROVAL_STATUS ( 'not_yet_approved' ) ;
#167 = CARTESIAN_POINT ( 'NONE',  ( 0.000000000000000000, 0.000000000000000000, 0.000000000000000000 ) ) ;
#168 = LINE ( 'NONE', #88, #66 ) ;
#169 = ORIENTED_EDGE ( 'NONE', *, *, #21, .F. ) ;
#170 = EDGE_CURVE ( 'NONE', #128, #87, #15, .T. ) ;
#171 = CARTESIAN_POINT ( 'NONE',  ( 2.499999999999999556, 3.061616997868382648E-16, 0.2000000000000000111 ) ) ;
#172 = COORDINATED_UNIVERSAL_TIME_OFFSET ( 5, 0, .BEHIND. ) ;
#173 = PERSON_AND_ORGANIZATION ( #39, #95 ) ;
#174 = PERSON_AND_ORGANIZATION ( #39, #95 ) ;
#175 = AXIS2_PLACEMENT_3D ( 'NONE', #135, #147, #108 ) ;
ENDSEC;
END-ISO-10303-21;
