ISO-10303-21;
HEADER;
FILE_DESCRIPTION (( 'STEP AP203' ),
    '1' );
FILE_NAME ('step_47572.step',
    '2014-06-12T17:59:37',
    ( '' ),
    ( '' ),
    'SwSTEP 2.0',
    'SolidWorks 2014',
    '' );
FILE_SCHEMA (( 'CONFIG_CONTROL_DESIGN' ));
ENDSEC;

DATA;
#1 = CC_DESIGN_PERSON_AND_ORGANIZATION_ASSIGNMENT ( #217, #6, ( #294 ) ) ;
#2 = PLANE ( 'NONE',  #73 ) ;
#3 = VERTEX_POINT ( 'NONE', #180 ) ;
#4 = ORIENTED_EDGE ( 'NONE', *, *, #100, .F. ) ;
#5 = CARTESIAN_POINT ( 'NONE',  ( 35.00000000000000000, 0.0000000000000000000, 35.00000000000000000 ) ) ;
#6 = PERSON_AND_ORGANIZATION_ROLE ( 'creator' ) ;
#7 = VECTOR ( 'NONE', #275, 1000.000000000000000 ) ;
#8 = ORIENTED_EDGE ( 'NONE', *, *, #257, .T. ) ;
#9 = ORIENTED_EDGE ( 'NONE', *, *, #33, .F. ) ;
#10 = APPLICATION_CONTEXT ( 'configuration controlled 3d designs of mechanical parts and assemblies' ) ;
#11 = VECTOR ( 'NONE', #92, 1000.000000000000000 ) ;
#12 = DIRECTION ( 'NONE',  ( -0.0000000000000000000, -0.0000000000000000000, -1.000000000000000000 ) ) ;
#13 = APPLICATION_CONTEXT ( 'configuration controlled 3d designs of mechanical parts and assemblies' ) ;
#14 = EDGE_CURVE ( 'NONE', #307, #156, #258, .T. ) ;
#15 = EDGE_LOOP ( 'NONE', ( #26, #72, #280, #8 ) ) ;
#16 = ORIENTED_EDGE ( 'NONE', *, *, #17, .T. ) ;
#17 = EDGE_CURVE ( 'NONE', #265, #151, #117, .T. ) ;
#18 = APPROVAL_ROLE ( '' ) ;
#19 = VECTOR ( 'NONE', #133, 1000.000000000000000 ) ;
#20 = DATE_TIME_ROLE ( 'classification_date' ) ;
#21 = DIRECTION ( 'NONE',  ( 0.0000000000000000000, 1.000000000000000000, 0.0000000000000000000 ) ) ;
#22 = EDGE_CURVE ( 'NONE', #156, #151, #107, .T. ) ;
#23 = DIRECTION ( 'NONE',  ( -0.0000000000000000000, -0.0000000000000000000, -1.000000000000000000 ) ) ;
#24 = APPROVAL_STATUS ( 'not_yet_approved' ) ;
#25 = FACE_OUTER_BOUND ( 'NONE', #125, .T. ) ;
#26 = ORIENTED_EDGE ( 'NONE', *, *, #239, .T. ) ;
#27 = VERTEX_POINT ( 'NONE', #5 ) ;
#28 = DIRECTION ( 'NONE',  ( 1.049697256412017100E-016, -1.000000000000000000, 0.0000000000000000000 ) ) ;
#29 = CARTESIAN_POINT ( 'NONE',  ( -3.673940397442060000E-015, 35.00000000000000000, 0.0000000000000000000 ) ) ;
#30 = FACE_OUTER_BOUND ( 'NONE', #123, .T. ) ;
#31 = APPROVAL_DATE_TIME ( #212, #202 ) ;
#32 = ADVANCED_FACE ( 'NONE', ( #84 ), #310, .F. ) ;
#33 = EDGE_CURVE ( 'NONE', #253, #3, #273, .T. ) ;
#34 = COORDINATED_UNIVERSAL_TIME_OFFSET ( 7, 0, .BEHIND. ) ;
#35 = LINE ( 'NONE', #163, #105 ) ;
#36 = ORIENTED_EDGE ( 'NONE', *, *, #22, .F. ) ;
#37 = EDGE_CURVE ( 'NONE', #307, #265, #250, .T. ) ;
#38 = ADVANCED_FACE ( 'NONE', ( #135 ), #247, .F. ) ;
#39 = VECTOR ( 'NONE', #142, 1000.000000000000000 ) ;
#40 = CALENDAR_DATE ( 2014, 12, 6 ) ;
#41 = ADVANCED_FACE ( 'NONE', ( #241 ), #182, .T. ) ;
#42 = PLANE ( 'NONE',  #282 ) ;
#43 = AXIS2_PLACEMENT_3D ( 'NONE', #153, #304, #279 ) ;
#44 = ORIENTED_EDGE ( 'NONE', *, *, #83, .T. ) ;
#45 = PERSON_AND_ORGANIZATION ( #244, #64 ) ;
#46 = EDGE_LOOP ( 'NONE', ( #233, #78, #44 ) ) ;
#47 = CARTESIAN_POINT ( 'NONE',  ( 35.00000000000000000, 35.00000000000000000, 35.00000000000000000 ) ) ;
#48 = CALENDAR_DATE ( 2014, 12, 6 ) ;
#49 = PERSON_AND_ORGANIZATION ( #244, #64 ) ;
#50 = FACE_OUTER_BOUND ( 'NONE', #137, .T. ) ;
#51 = APPROVAL ( #303, 'UNSPECIFIED' ) ;
#52 = CARTESIAN_POINT ( 'NONE',  ( -3.673940397442060000E-015, 35.00000000000000000, 35.00000000000000000 ) ) ;
#53 = CARTESIAN_POINT ( 'NONE',  ( 0.0000000000000000000, 0.0000000000000000000, 35.00000000000000000 ) ) ;
#54 = CARTESIAN_POINT ( 'NONE',  ( -3.673940397442060000E-015, 35.00000000000000000, 35.00000000000000000 ) ) ;
#55 = ORIENTED_EDGE ( 'NONE', *, *, #291, .T. ) ;
#56 = AXIS2_PLACEMENT_3D ( 'NONE', #236, #154, #146 ) ;
#57 = DIRECTION ( 'NONE',  ( -1.049697256412017100E-016, 1.000000000000000000, 0.0000000000000000000 ) ) ;
#58 = COORDINATED_UNIVERSAL_TIME_OFFSET ( 7, 0, .BEHIND. ) ;
#59 = LOCAL_TIME ( 10, 59, 37.00000000000000000, #143 ) ;
#60 = ORIENTED_EDGE ( 'NONE', *, *, #81, .T. ) ;
#61 = APPROVAL_ROLE ( '' ) ;
#62 = DIRECTION ( 'NONE',  ( -0.0000000000000000000, -0.0000000000000000000, -1.000000000000000000 ) ) ;
#63 = DIRECTION ( 'NONE',  ( 1.000000000000000000, 1.049697256412017100E-016, -0.0000000000000000000 ) ) ;
#64 = ORGANIZATION ( 'UNSPECIFIED', 'UNSPECIFIED', '' ) ;
#65 = VECTOR ( 'NONE', #281, 1000.000000000000000 ) ;
#66 = CARTESIAN_POINT ( 'NONE',  ( 35.00000000000000000, 0.0000000000000000000, 35.00000000000000000 ) ) ;
#67 = CARTESIAN_POINT ( 'NONE',  ( -3.673940397442060000E-015, 35.00000000000000000, 0.0000000000000000000 ) ) ;
#68 = PLANE ( 'NONE',  #157 ) ;
#69 = EDGE_CURVE ( 'NONE', #156, #172, #35, .T. ) ;
#70 = CARTESIAN_POINT ( 'NONE',  ( 35.00000000000000000, 0.0000000000000000000, 0.0000000000000000000 ) ) ;
#71 = ORIENTED_EDGE ( 'NONE', *, *, #75, .T. ) ;
#72 = ORIENTED_EDGE ( 'NONE', *, *, #109, .F. ) ;
#73 = AXIS2_PLACEMENT_3D ( 'NONE', #47, #116, #158 ) ;
#74 = CARTESIAN_POINT ( 'NONE',  ( -3.673940397442060000E-015, 35.00000000000000000, 35.00000000000000000 ) ) ;
#75 = EDGE_CURVE ( 'NONE', #172, #87, #177, .T. ) ;
#76 = VECTOR ( 'NONE', #12, 1000.000000000000000 ) ;
#77 = CARTESIAN_POINT ( 'NONE',  ( 0.0000000000000000000, 0.0000000000000000000, 35.00000000000000000 ) ) ;
#78 = ORIENTED_EDGE ( 'NONE', *, *, #69, .T. ) ;
#79 = EDGE_LOOP ( 'NONE', ( #264, #147, #208, #255 ) ) ;
#80 = MANIFOLD_SOLID_BREP ( 'Boss-Extrude1', #190 ) ;
#81 = EDGE_CURVE ( 'NONE', #87, #265, #319, .T. ) ;
#82 = EDGE_LOOP ( 'NONE', ( #268, #160, #4 ) ) ;
#83 = EDGE_CURVE ( 'NONE', #172, #307, #224, .T. ) ;
#84 = FACE_OUTER_BOUND ( 'NONE', #82, .T. ) ;
#85 = CARTESIAN_POINT ( 'NONE',  ( 35.00000000000000000, 0.0000000000000000000, 0.0000000000000000000 ) ) ;
#86 = ORIENTED_EDGE ( 'NONE', *, *, #104, .T. ) ;
#87 = VERTEX_POINT ( 'NONE', #93 ) ;
#88 = DIRECTION ( 'NONE',  ( 1.000000000000000000, 0.0000000000000000000, 0.0000000000000000000 ) ) ;
#89 = CARTESIAN_POINT ( 'NONE',  ( 35.00000000000000000, 0.0000000000000000000, 35.00000000000000000 ) ) ;
#90 = DIRECTION ( 'NONE',  ( 0.0000000000000000000, 0.0000000000000000000, 1.000000000000000000 ) ) ;
#91 = LINE ( 'NONE', #267, #284 ) ;
#92 = DIRECTION ( 'NONE',  ( -0.7071067811865475700, 0.7071067811865474600, 0.0000000000000000000 ) ) ;
#93 = CARTESIAN_POINT ( 'NONE',  ( 0.0000000000000000000, 0.0000000000000000000, 0.0000000000000000000 ) ) ;
#94 = CARTESIAN_POINT ( 'NONE',  ( 0.0000000000000000000, 0.0000000000000000000, 35.00000000000000000 ) ) ;
#95 = EDGE_LOOP ( 'NONE', ( #16, #36, #169, #238 ) ) ;
#96 = VECTOR ( 'NONE', #189, 1000.000000000000000 ) ;
#97 = ADVANCED_FACE ( 'NONE', ( #30 ), #68, .F. ) ;
#98 = FACE_OUTER_BOUND ( 'NONE', #315, .T. ) ;
#99 = PERSON_AND_ORGANIZATION_ROLE ( 'design_supplier' ) ;
#100 = EDGE_CURVE ( 'NONE', #151, #87, #102, .T. ) ;
#101 = PERSON_AND_ORGANIZATION ( #244, #64 ) ;
#102 = LINE ( 'NONE', #29, #214 ) ;
#103 = APPLICATION_PROTOCOL_DEFINITION ( 'international standard', 'config_control_design', 1994, #10 ) ;
#104 = EDGE_CURVE ( 'NONE', #27, #184, #168, .T. ) ;
#105 = VECTOR ( 'NONE', #136, 1000.000000000000000 ) ;
#106 = DIRECTION ( 'NONE',  ( 0.0000000000000000000, 0.0000000000000000000, -1.000000000000000000 ) ) ;
#107 = LINE ( 'NONE', #52, #114 ) ;
#108 = DIRECTION ( 'NONE',  ( -1.000000000000000000, 0.0000000000000000000, -0.0000000000000000000 ) ) ;
#109 = EDGE_CURVE ( 'NONE', #199, #193, #230, .T. ) ;
#110 =( LENGTH_UNIT ( ) NAMED_UNIT ( * ) SI_UNIT ( .MILLI., .METRE. ) );
#111 = CARTESIAN_POINT ( 'NONE',  ( 0.0000000000000000000, 0.0000000000000000000, 0.0000000000000000000 ) ) ;
#112 = LOCAL_TIME ( 10, 59, 37.00000000000000000, #34 ) ;
#113 = AXIS2_PLACEMENT_3D ( 'NONE', #227, #222, #203 ) ;
#114 = VECTOR ( 'NONE', #23, 1000.000000000000000 ) ;
#115 = DIRECTION ( 'NONE',  ( 1.000000000000000000, 0.0000000000000000000, 0.0000000000000000000 ) ) ;
#116 = DIRECTION ( 'NONE',  ( 0.0000000000000000000, -1.000000000000000000, 0.0000000000000000000 ) ) ;
#117 = LINE ( 'NONE', #85, #11 ) ;
#118 =( NAMED_UNIT ( * ) SI_UNIT ( $, .STERADIAN. ) SOLID_ANGLE_UNIT ( ) );
#119 = PRODUCT_DEFINITION_SHAPE ( 'NONE', 'NONE',  #221 ) ;
#120 = UNCERTAINTY_MEASURE_WITH_UNIT (LENGTH_MEASURE( 1.000000000000000100E-005 ), #110, 'distance_accuracy_value', 'NONE');
#121 = VECTOR ( 'NONE', #88, 1000.000000000000000 ) ;
#122 = DATE_AND_TIME ( #40, #215 ) ;
#123 = EDGE_LOOP ( 'NONE', ( #274, #260, #207, #259 ) ) ;
#124 = PERSON_AND_ORGANIZATION ( #244, #64 ) ;
#125 = EDGE_LOOP ( 'NONE', ( #60, #131, #178, #71 ) ) ;
#126 = CARTESIAN_POINT ( 'NONE',  ( 35.00000000000000000, 0.0000000000000000000, 0.0000000000000000000 ) ) ;
#127 = VECTOR ( 'NONE', #321, 1000.000000000000000 ) ;
#128 = CARTESIAN_POINT ( 'NONE',  ( 0.0000000000000000000, 0.0000000000000000000, 35.00000000000000000 ) ) ;
#129 = DATE_AND_TIME ( #48, #223 ) ;
#130 = DIRECTION ( 'NONE',  ( -0.0000000000000000000, -0.0000000000000000000, -1.000000000000000000 ) ) ;
#131 = ORIENTED_EDGE ( 'NONE', *, *, #37, .F. ) ;
#132 = CARTESIAN_POINT ( 'NONE',  ( 0.0000000000000000000, 0.0000000000000000000, 35.00000000000000000 ) ) ;
#133 = DIRECTION ( 'NONE',  ( 0.7071067811865475700, -0.7071067811865474600, 0.0000000000000000000 ) ) ;
#134 = APPROVAL_ROLE ( '' ) ;
#135 = FACE_OUTER_BOUND ( 'NONE', #95, .T. ) ;
#136 = DIRECTION ( 'NONE',  ( 1.049697256412017100E-016, -1.000000000000000000, 0.0000000000000000000 ) ) ;
#137 = EDGE_LOOP ( 'NONE', ( #55, #306, #86 ) ) ;
#138 = APPROVAL_PERSON_ORGANIZATION ( #49, #266, #134 ) ;
#139 = CC_DESIGN_APPROVAL ( #51, ( #221 ) ) ;
#140 = ADVANCED_FACE ( 'NONE', ( #50 ), #42, .F. ) ;
#141 = PERSON_AND_ORGANIZATION_ROLE ( 'classification_officer' ) ;
#142 = DIRECTION ( 'NONE',  ( -0.7071067811865475700, 0.7071067811865474600, 0.0000000000000000000 ) ) ;
#143 = COORDINATED_UNIVERSAL_TIME_OFFSET ( 7, 0, .BEHIND. ) ;
#144 = DIRECTION ( 'NONE',  ( 0.0000000000000000000, -0.0000000000000000000, 1.000000000000000000 ) ) ;
#145 = ADVANCED_FACE ( 'NONE', ( #200 ), #2, .F. ) ;
#146 = DIRECTION ( 'NONE',  ( 1.000000000000000000, 0.0000000000000000000, -0.0000000000000000000 ) ) ;
#147 = ORIENTED_EDGE ( 'NONE', *, *, #314, .F. ) ;
#148 = ORIENTED_EDGE ( 'NONE', *, *, #320, .F. ) ;
#149 = PRODUCT ( 'step_47572', 'step_47572', '', ( #171 ) ) ;
#150 = DIRECTION ( 'NONE',  ( 1.000000000000000000, 0.0000000000000000000, 0.0000000000000000000 ) ) ;
#151 = VERTEX_POINT ( 'NONE', #170 ) ;
#152 = PRODUCT_RELATED_PRODUCT_CATEGORY ( 'detail', '', ( #149 ) ) ;
#153 = CARTESIAN_POINT ( 'NONE',  ( 0.0000000000000000000, 0.0000000000000000000, 0.0000000000000000000 ) ) ;
#154 = DIRECTION ( 'NONE',  ( 0.0000000000000000000, 0.0000000000000000000, 1.000000000000000000 ) ) ;
#155 = VECTOR ( 'NONE', #62, 1000.000000000000000 ) ;
#156 = VERTEX_POINT ( 'NONE', #188 ) ;
#157 = AXIS2_PLACEMENT_3D ( 'NONE', #74, #63, #57 ) ;
#158 = DIRECTION ( 'NONE',  ( 0.0000000000000000000, -0.0000000000000000000, -1.000000000000000000 ) ) ;
#159 = LOCAL_TIME ( 10, 59, 37.00000000000000000, #58 ) ;
#160 = ORIENTED_EDGE ( 'NONE', *, *, #81, .F. ) ;
#161 = CALENDAR_DATE ( 2014, 12, 6 ) ;
#162 = PLANE ( 'NONE',  #179 ) ;
#163 = CARTESIAN_POINT ( 'NONE',  ( -3.673940397442060000E-015, 35.00000000000000000, 35.00000000000000000 ) ) ;
#164 = ADVANCED_FACE ( 'NONE', ( #25 ), #162, .F. ) ;
#165 = PERSON_AND_ORGANIZATION ( #244, #64 ) ;
#166 = CARTESIAN_POINT ( 'NONE',  ( 35.00000000000000000, 0.0000000000000000000, 35.00000000000000000 ) ) ;
#167 = CARTESIAN_POINT ( 'NONE',  ( 35.00000000000000000, 0.0000000000000000000, 35.00000000000000000 ) ) ;
#168 = LINE ( 'NONE', #66, #206 ) ;
#169 = ORIENTED_EDGE ( 'NONE', *, *, #14, .F. ) ;
#170 = CARTESIAN_POINT ( 'NONE',  ( -3.673940397442060000E-015, 35.00000000000000000, 0.0000000000000000000 ) ) ;
#171 = MECHANICAL_CONTEXT ( 'NONE', #10, 'mechanical' ) ;
#172 = VERTEX_POINT ( 'NONE', #77 ) ;
#173 = APPLICATION_PROTOCOL_DEFINITION ( 'international standard', 'config_control_design', 1994, #13 ) ;
#174 = EDGE_LOOP ( 'NONE', ( #289, #9, #148 ) ) ;
#175 = CC_DESIGN_SECURITY_CLASSIFICATION ( #234, ( #294 ) ) ;
#176 = ADVANCED_FACE ( 'NONE', ( #98 ), #220, .F. ) ;
#177 = LINE ( 'NONE', #128, #218 ) ;
#178 = ORIENTED_EDGE ( 'NONE', *, *, #83, .F. ) ;
#179 = AXIS2_PLACEMENT_3D ( 'NONE', #132, #197, #144 ) ;
#180 = CARTESIAN_POINT ( 'NONE',  ( 35.00000000000000000, 35.00000000000000000, 0.0000000000000000000 ) ) ;
#181 = EDGE_CURVE ( 'NONE', #199, #27, #302, .T. ) ;
#182 = PLANE ( 'NONE',  #56 ) ;
#183 = CC_DESIGN_PERSON_AND_ORGANIZATION_ASSIGNMENT ( #101, #209, ( #221 ) ) ;
#184 = VERTEX_POINT ( 'NONE', #210 ) ;
#185 = ORIENTED_EDGE ( 'NONE', *, *, #104, .F. ) ;
#186 = ORIENTED_EDGE ( 'NONE', *, *, #314, .T. ) ;
#187 = CC_DESIGN_APPROVAL ( #202, ( #234 ) ) ;
#188 = CARTESIAN_POINT ( 'NONE',  ( -3.673940397442060000E-015, 35.00000000000000000, 35.00000000000000000 ) ) ;
#189 = DIRECTION ( 'NONE',  ( 0.7071067811865475700, -0.7071067811865474600, 0.0000000000000000000 ) ) ;
#190 = CLOSED_SHELL ( 'NONE', ( #38, #97, #164, #41, #32 ) ) ;
#191 = APPROVAL_STATUS ( 'not_yet_approved' ) ;
#192 = LINE ( 'NONE', #89, #155 ) ;
#193 = VERTEX_POINT ( 'NONE', #261 ) ;
#194 = ORIENTED_EDGE ( 'NONE', *, *, #33, .T. ) ;
#195 = SECURITY_CLASSIFICATION_LEVEL ( 'unclassified' ) ;
#196 = FACE_OUTER_BOUND ( 'NONE', #174, .T. ) ;
#197 = DIRECTION ( 'NONE',  ( 0.0000000000000000000, 1.000000000000000000, 0.0000000000000000000 ) ) ;
#198 = FACE_OUTER_BOUND ( 'NONE', #79, .T. ) ;
#199 = VERTEX_POINT ( 'NONE', #231 ) ;
#200 = FACE_OUTER_BOUND ( 'NONE', #15, .T. ) ;
#201 = CARTESIAN_POINT ( 'NONE',  ( -3.673940397442060000E-015, 35.00000000000000000, 35.00000000000000000 ) ) ;
#202 = APPROVAL ( #24, 'UNSPECIFIED' ) ;
#203 = DIRECTION ( 'NONE',  ( 0.7071067811865476800, -0.7071067811865474600, 0.0000000000000000000 ) ) ;
#204 = CC_DESIGN_DATE_AND_TIME_ASSIGNMENT ( #122, #20, ( #234 ) ) ;
#205 = SHAPE_DEFINITION_REPRESENTATION ( #119, #317 ) ;
#206 = VECTOR ( 'NONE', #21, 1000.000000000000000 ) ;
#207 = ORIENTED_EDGE ( 'NONE', *, *, #69, .F. ) ;
#208 = ORIENTED_EDGE ( 'NONE', *, *, #181, .F. ) ;
#209 = PERSON_AND_ORGANIZATION_ROLE ( 'creator' ) ;
#210 = CARTESIAN_POINT ( 'NONE',  ( 35.00000000000000000, 35.00000000000000000, 35.00000000000000000 ) ) ;
#211 = AXIS2_PLACEMENT_3D ( 'NONE', #167, #240, #248 ) ;
#212 = DATE_AND_TIME ( #283, #112 ) ;
#213 = APPROVAL_PERSON_ORGANIZATION ( #285, #202, #61 ) ;
#214 = VECTOR ( 'NONE', #28, 1000.000000000000000 ) ;
#215 = LOCAL_TIME ( 10, 59, 37.00000000000000000, #297 ) ;
#216 = CARTESIAN_POINT ( 'NONE',  ( 0.0000000000000000000, 0.0000000000000000000, 0.0000000000000000000 ) ) ;
#217 = PERSON_AND_ORGANIZATION ( #244, #64 ) ;
#218 = VECTOR ( 'NONE', #130, 1000.000000000000000 ) ;
#219 = MANIFOLD_SOLID_BREP ( 'Boss-Extrude2', #252 ) ;
#220 = PLANE ( 'NONE',  #211 ) ;
#221 = PRODUCT_DEFINITION ( 'UNKNOWN', '', #294, #246 ) ;
#222 = DIRECTION ( 'NONE',  ( -0.7071067811865474600, -0.7071067811865476800, 0.0000000000000000000 ) ) ;
#223 = LOCAL_TIME ( 10, 59, 37.00000000000000000, #301 ) ;
#224 = LINE ( 'NONE', #94, #121 ) ;
#225 = CARTESIAN_POINT ( 'NONE',  ( 35.00000000000000000, 0.0000000000000000000, 35.00000000000000000 ) ) ;
#226 = CC_DESIGN_PERSON_AND_ORGANIZATION_ASSIGNMENT ( #124, #141, ( #234 ) ) ;
#227 = CARTESIAN_POINT ( 'NONE',  ( 35.00000000000000000, 0.0000000000000000000, 35.00000000000000000 ) ) ;
#228 = ADVANCED_FACE ( 'NONE', ( #198 ), #292, .F. ) ;
#229 =( NAMED_UNIT ( * ) PLANE_ANGLE_UNIT ( ) SI_UNIT ( $, .RADIAN. ) );
#230 = LINE ( 'NONE', #54, #76 ) ;
#231 = CARTESIAN_POINT ( 'NONE',  ( -3.673940397442060000E-015, 35.00000000000000000, 35.00000000000000000 ) ) ;
#232 = DATE_AND_TIME ( #305, #159 ) ;
#233 = ORIENTED_EDGE ( 'NONE', *, *, #14, .T. ) ;
#234 = SECURITY_CLASSIFICATION ( '', '', #195 ) ;
#235 = DATE_TIME_ROLE ( 'creation_date' ) ;
#236 = CARTESIAN_POINT ( 'NONE',  ( 0.0000000000000000000, 0.0000000000000000000, 35.00000000000000000 ) ) ;
#237 = APPROVAL_DATE_TIME ( #309, #51 ) ;
#238 = ORIENTED_EDGE ( 'NONE', *, *, #37, .T. ) ;
#239 = EDGE_CURVE ( 'NONE', #3, #193, #91, .T. ) ;
#240 = DIRECTION ( 'NONE',  ( -1.000000000000000000, 0.0000000000000000000, 0.0000000000000000000 ) ) ;
#241 = FACE_OUTER_BOUND ( 'NONE', #46, .T. ) ;
#242 = ORIENTED_EDGE ( 'NONE', *, *, #257, .F. ) ;
#243 = CC_DESIGN_PERSON_AND_ORGANIZATION_ASSIGNMENT ( #45, #99, ( #294 ) ) ;
#244 = PERSON ( 'UNSPECIFIED', 'UNSPECIFIED', 'UNSPECIFIED', ('UNSPECIFIED'), ('UNSPECIFIED'), ('UNSPECIFIED') ) ;
#245 = APPROVAL_PERSON_ORGANIZATION ( #318, #51, #18 ) ;
#246 = DESIGN_CONTEXT ( 'detailed design', #13, 'design' ) ;
#247 = PLANE ( 'NONE',  #113 ) ;
#248 = DIRECTION ( 'NONE',  ( 0.0000000000000000000, 0.0000000000000000000, 1.000000000000000000 ) ) ;
#249 = PERSON_AND_ORGANIZATION_ROLE ( 'design_owner' ) ;
#250 = LINE ( 'NONE', #270, #7 ) ;
#251 = DIRECTION ( 'NONE',  ( 0.0000000000000000000, 1.000000000000000000, 0.0000000000000000000 ) ) ;
#252 = CLOSED_SHELL ( 'NONE', ( #145, #228, #176, #140, #254 ) ) ;
#253 = VERTEX_POINT ( 'NONE', #70 ) ;
#254 = ADVANCED_FACE ( 'NONE', ( #196 ), #295, .T. ) ;
#255 = ORIENTED_EDGE ( 'NONE', *, *, #109, .T. ) ;
#256 = AXIS2_PLACEMENT_3D ( 'NONE', #286, #272, #262 ) ;
#257 = EDGE_CURVE ( 'NONE', #184, #3, #288, .T. ) ;
#258 = LINE ( 'NONE', #166, #39 ) ;
#259 = ORIENTED_EDGE ( 'NONE', *, *, #22, .T. ) ;
#260 = ORIENTED_EDGE ( 'NONE', *, *, #75, .F. ) ;
#261 = CARTESIAN_POINT ( 'NONE',  ( -3.673940397442060000E-015, 35.00000000000000000, 0.0000000000000000000 ) ) ;
#262 = DIRECTION ( 'NONE',  ( -0.7071067811865476800, 0.7071067811865474600, 0.0000000000000000000 ) ) ;
#263 = VECTOR ( 'NONE', #251, 1000.000000000000000 ) ;
#264 = ORIENTED_EDGE ( 'NONE', *, *, #320, .T. ) ;
#265 = VERTEX_POINT ( 'NONE', #126 ) ;
#266 = APPROVAL ( #191, 'UNSPECIFIED' ) ;
#267 = CARTESIAN_POINT ( 'NONE',  ( 35.00000000000000000, 35.00000000000000000, 0.0000000000000000000 ) ) ;
#268 = ORIENTED_EDGE ( 'NONE', *, *, #17, .F. ) ;
#269 = CARTESIAN_POINT ( 'NONE',  ( 35.00000000000000000, 0.0000000000000000000, 0.0000000000000000000 ) ) ;
#270 = CARTESIAN_POINT ( 'NONE',  ( 35.00000000000000000, 0.0000000000000000000, 35.00000000000000000 ) ) ;
#271 =( GEOMETRIC_REPRESENTATION_CONTEXT ( 3 ) GLOBAL_UNCERTAINTY_ASSIGNED_CONTEXT ( ( #120 ) ) GLOBAL_UNIT_ASSIGNED_CONTEXT ( ( #110, #229, #118 ) ) REPRESENTATION_CONTEXT ( 'NONE', 'WORKASPACE' ) );
#272 = DIRECTION ( 'NONE',  ( 0.7071067811865474600, 0.7071067811865476800, -0.0000000000000000000 ) ) ;
#273 = LINE ( 'NONE', #269, #263 ) ;
#274 = ORIENTED_EDGE ( 'NONE', *, *, #100, .T. ) ;
#275 = DIRECTION ( 'NONE',  ( -0.0000000000000000000, -0.0000000000000000000, -1.000000000000000000 ) ) ;
#276 = AXIS2_PLACEMENT_3D ( 'NONE', #216, #316, #312 ) ;
#277 = DIRECTION ( 'NONE',  ( -1.000000000000000000, 0.0000000000000000000, 0.0000000000000000000 ) ) ;
#278 = LINE ( 'NONE', #67, #19 ) ;
#279 = DIRECTION ( 'NONE',  ( 1.000000000000000000, 0.0000000000000000000, -0.0000000000000000000 ) ) ;
#280 = ORIENTED_EDGE ( 'NONE', *, *, #291, .F. ) ;
#281 = DIRECTION ( 'NONE',  ( -0.0000000000000000000, -0.0000000000000000000, -1.000000000000000000 ) ) ;
#282 = AXIS2_PLACEMENT_3D ( 'NONE', #53, #106, #108 ) ;
#283 = CALENDAR_DATE ( 2014, 12, 6 ) ;
#284 = VECTOR ( 'NONE', #277, 1000.000000000000000 ) ;
#285 = PERSON_AND_ORGANIZATION ( #244, #64 ) ;
#286 = CARTESIAN_POINT ( 'NONE',  ( -3.673940397442060000E-015, 35.00000000000000000, 35.00000000000000000 ) ) ;
#287 = CARTESIAN_POINT ( 'NONE',  ( 35.00000000000000000, 35.00000000000000000, 35.00000000000000000 ) ) ;
#288 = LINE ( 'NONE', #296, #65 ) ;
#289 = ORIENTED_EDGE ( 'NONE', *, *, #239, .F. ) ;
#290 = CC_DESIGN_APPROVAL ( #266, ( #294 ) ) ;
#291 = EDGE_CURVE ( 'NONE', #184, #199, #298, .T. ) ;
#292 = PLANE ( 'NONE',  #256 ) ;
#293 = CARTESIAN_POINT ( 'NONE',  ( 0.0000000000000000000, 0.0000000000000000000, 0.0000000000000000000 ) ) ;
#294 = PRODUCT_DEFINITION_FORMATION_WITH_SPECIFIED_SOURCE ( 'ANY', '', #149, .NOT_KNOWN. ) ;
#295 = PLANE ( 'NONE',  #276 ) ;
#296 = CARTESIAN_POINT ( 'NONE',  ( 35.00000000000000000, 35.00000000000000000, 35.00000000000000000 ) ) ;
#297 = COORDINATED_UNIVERSAL_TIME_OFFSET ( 7, 0, .BEHIND. ) ;
#298 = LINE ( 'NONE', #287, #127 ) ;
#299 = APPROVAL_DATE_TIME ( #129, #266 ) ;
#300 = AXIS2_PLACEMENT_3D ( 'NONE', #293, #90, #150 ) ;
#301 = COORDINATED_UNIVERSAL_TIME_OFFSET ( 7, 0, .BEHIND. ) ;
#302 = LINE ( 'NONE', #201, #96 ) ;
#303 = APPROVAL_STATUS ( 'not_yet_approved' ) ;
#304 = DIRECTION ( 'NONE',  ( 0.0000000000000000000, 0.0000000000000000000, 1.000000000000000000 ) ) ;
#305 = CALENDAR_DATE ( 2014, 12, 6 ) ;
#306 = ORIENTED_EDGE ( 'NONE', *, *, #181, .T. ) ;
#307 = VERTEX_POINT ( 'NONE', #225 ) ;
#308 = CC_DESIGN_PERSON_AND_ORGANIZATION_ASSIGNMENT ( #165, #249, ( #149 ) ) ;
#309 = DATE_AND_TIME ( #161, #59 ) ;
#310 = PLANE ( 'NONE',  #43 ) ;
#311 = VECTOR ( 'NONE', #115, 1000.000000000000000 ) ;
#312 = DIRECTION ( 'NONE',  ( -1.000000000000000000, 0.0000000000000000000, -0.0000000000000000000 ) ) ;
#313 = CC_DESIGN_DATE_AND_TIME_ASSIGNMENT ( #232, #235, ( #221 ) ) ;
#314 = EDGE_CURVE ( 'NONE', #27, #253, #192, .T. ) ;
#315 = EDGE_LOOP ( 'NONE', ( #194, #242, #185, #186 ) ) ;
#316 = DIRECTION ( 'NONE',  ( 0.0000000000000000000, 0.0000000000000000000, -1.000000000000000000 ) ) ;
#317 = ADVANCED_BREP_SHAPE_REPRESENTATION ( 'step_47572', ( #80, #219, #300 ), #271 ) ;
#318 = PERSON_AND_ORGANIZATION ( #244, #64 ) ;
#319 = LINE ( 'NONE', #111, #311 ) ;
#320 = EDGE_CURVE ( 'NONE', #193, #253, #278, .T. ) ;
#321 = DIRECTION ( 'NONE',  ( -1.000000000000000000, 0.0000000000000000000, 0.0000000000000000000 ) ) ;
ENDSEC;
END-ISO-10303-21;
