ISO-10303-21;
HEADER;
FILE_DESCRIPTION (( 'STEP AP203' ),
    '1' );
FILE_NAME ('step_35954.step',
    '2017-05-22T20:26:42',
    ( '' ),
    ( '' ),
    'SwSTEP 2.0',
    'SolidWorks 2016',
    '' );
FILE_SCHEMA (( 'CONFIG_CONTROL_DESIGN' ));
ENDSEC;

DATA;
#1 = PLANE ( 'NONE',  #131 ) ;
#2 = DIRECTION ( 'NONE',  ( 0.0000000000000000000, 1.000000000000000000, 0.0000000000000000000 ) ) ;
#3 = CC_DESIGN_SECURITY_CLASSIFICATION ( #21, ( #48 ) ) ;
#4 = CALENDAR_DATE ( 2017, 22, 5 ) ;
#5 = CC_DESIGN_APPROVAL ( #14, ( #21 ) ) ;
#6 = LOCAL_TIME ( 13, 26, 42.00000000000000000, #9 ) ;
#7 = DIRECTION ( 'NONE',  ( 1.000000000000000000, 1.982541115402065100E-016, -0.0000000000000000000 ) ) ;
#8 = APPLICATION_PROTOCOL_DEFINITION ( 'international standard', 'config_control_design', 1994, #81 ) ;
#9 = COORDINATED_UNIVERSAL_TIME_OFFSET ( 7, 0, .BEHIND. ) ;
#10 = CARTESIAN_POINT ( 'NONE',  ( -17.49999999999999600, -17.50000000000000400, 1.000000000000000000 ) ) ;
#11 = CARTESIAN_POINT ( 'NONE',  ( -17.50000000000000000, 17.49999999999999600, 1.000000000000000000 ) ) ;
#12 = CARTESIAN_POINT ( 'NONE',  ( -17.50000000000000000, 17.49999999999999600, 1.000000000000000000 ) ) ;
#13 = APPROVAL_PERSON_ORGANIZATION ( #16, #14, #149 ) ;
#14 = APPROVAL ( #151, 'UNSPECIFIED' ) ;
#15 = CC_DESIGN_DATE_AND_TIME_ASSIGNMENT ( #17, #152, ( #21 ) ) ;
#16 = PERSON_AND_ORGANIZATION ( #136, #109 ) ;
#17 = DATE_AND_TIME ( #18, #20 ) ;
#18 = CALENDAR_DATE ( 2017, 22, 5 ) ;
#19 = CC_DESIGN_PERSON_AND_ORGANIZATION_ASSIGNMENT ( #24, #153, ( #21 ) ) ;
#20 = LOCAL_TIME ( 13, 26, 42.00000000000000000, #23 ) ;
#21 = SECURITY_CLASSIFICATION ( '', '', #154 ) ;
#22 = CC_DESIGN_PERSON_AND_ORGANIZATION_ASSIGNMENT ( #25, #155, ( #48 ) ) ;
#23 = COORDINATED_UNIVERSAL_TIME_OFFSET ( 7, 0, .BEHIND. ) ;
#24 = PERSON_AND_ORGANIZATION ( #136, #109 ) ;
#25 = PERSON_AND_ORGANIZATION ( #136, #109 ) ;
#26 = CC_DESIGN_PERSON_AND_ORGANIZATION_ASSIGNMENT ( #30, #158, ( #48 ) ) ;
#27 = CARTESIAN_POINT ( 'NONE',  ( -17.50000000000000000, 17.49999999999999600, 1.000000000000000000 ) ) ;
#28 = ADVANCED_FACE ( 'NONE', ( #47 ), #226, .F. ) ;
#29 = CARTESIAN_POINT ( 'NONE',  ( -17.50000000000000000, 17.49999999999999600, 0.0000000000000000000 ) ) ;
#30 = PERSON_AND_ORGANIZATION ( #136, #109 ) ;
#31 = APPROVAL_DATE_TIME ( #32, #46 ) ;
#32 = DATE_AND_TIME ( #34, #35 ) ;
#33 = DIRECTION ( 'NONE',  ( 1.982541115402065100E-016, -1.000000000000000000, 0.0000000000000000000 ) ) ;
#34 = CALENDAR_DATE ( 2017, 22, 5 ) ;
#35 = LOCAL_TIME ( 13, 26, 42.00000000000000000, #38 ) ;
#36 = CC_DESIGN_APPROVAL ( #46, ( #48 ) ) ;
#37 = PLANE ( 'NONE',  #211 ) ;
#38 = COORDINATED_UNIVERSAL_TIME_OFFSET ( 7, 0, .BEHIND. ) ;
#39 = APPROVAL_PERSON_ORGANIZATION ( #40, #46, #95 ) ;
#40 = PERSON_AND_ORGANIZATION ( #136, #109 ) ;
#41 = DIRECTION ( 'NONE',  ( -9.912705577010325500E-017, 1.000000000000000000, -0.0000000000000000000 ) ) ;
#42 =( LENGTH_UNIT ( ) NAMED_UNIT ( * ) SI_UNIT ( .MILLI., .METRE. ) );
#43 = DATE_AND_TIME ( #58, #49 ) ;
#44 = PRODUCT_DEFINITION_SHAPE ( 'NONE', 'NONE',  #63 ) ;
#45 = CARTESIAN_POINT ( 'NONE',  ( 17.50000000000000000, 17.49999999999999600, 0.0000000000000000000 ) ) ;
#46 = APPROVAL ( #115, 'UNSPECIFIED' ) ;
#47 = FACE_OUTER_BOUND ( 'NONE', #219, .T. ) ;
#48 = PRODUCT_DEFINITION_FORMATION_WITH_SPECIFIED_SOURCE ( 'ANY', '', #166, .NOT_KNOWN. ) ;
#49 = LOCAL_TIME ( 13, 26, 42.00000000000000000, #188 ) ;
#50 = ORIENTED_EDGE ( 'NONE', *, *, #234, .T. ) ;
#51 = VECTOR ( 'NONE', #72, 1000.000000000000000 ) ;
#52 = VECTOR ( 'NONE', #75, 1000.000000000000000 ) ;
#53 = CC_DESIGN_DATE_AND_TIME_ASSIGNMENT ( #43, #82, ( #63 ) ) ;
#54 = CC_DESIGN_PERSON_AND_ORGANIZATION_ASSIGNMENT ( #57, #210, ( #63 ) ) ;
#55 = APPROVAL_DATE_TIME ( #142, #59 ) ;
#56 = CC_DESIGN_APPROVAL ( #59, ( #63 ) ) ;
#57 = PERSON_AND_ORGANIZATION ( #136, #109 ) ;
#58 = CALENDAR_DATE ( 2017, 22, 5 ) ;
#59 = APPROVAL ( #132, 'UNSPECIFIED' ) ;
#60 = CARTESIAN_POINT ( 'NONE',  ( 17.50000000000000400, -17.50000000000000400, 1.000000000000000000 ) ) ;
#61 = VERTEX_POINT ( 'NONE', #87 ) ;
#62 = DIRECTION ( 'NONE',  ( -0.0000000000000000000, 0.0000000000000000000, 1.000000000000000000 ) ) ;
#63 = PRODUCT_DEFINITION ( 'UNKNOWN', '', #48, #157 ) ;
#64 = VERTEX_POINT ( 'NONE', #60 ) ;
#65 = ORIENTED_EDGE ( 'NONE', *, *, #237, .T. ) ;
#66 = DIRECTION ( 'NONE',  ( 1.000000000000000000, 0.0000000000000000000, 0.0000000000000000000 ) ) ;
#67 = CARTESIAN_POINT ( 'NONE',  ( -17.50000000000000000, 17.49999999999999600, 1.000000000000000000 ) ) ;
#68 = CC_DESIGN_PERSON_AND_ORGANIZATION_ASSIGNMENT ( #140, #204, ( #166 ) ) ;
#69 = PLANE ( 'NONE',  #101 ) ;
#70 = AXIS2_PLACEMENT_3D ( 'NONE', #121, #218, #215 ) ;
#71 =( NAMED_UNIT ( * ) SI_UNIT ( $, .STERADIAN. ) SOLID_ANGLE_UNIT ( ) );
#72 = DIRECTION ( 'NONE',  ( 1.000000000000000000, 0.0000000000000000000, 0.0000000000000000000 ) ) ;
#73 = FACE_OUTER_BOUND ( 'NONE', #130, .T. ) ;
#74 = ORIENTED_EDGE ( 'NONE', *, *, #231, .T. ) ;
#75 = DIRECTION ( 'NONE',  ( -0.0000000000000000000, -0.0000000000000000000, -1.000000000000000000 ) ) ;
#76 = DIRECTION ( 'NONE',  ( -1.982541115402065100E-016, 1.000000000000000000, 0.0000000000000000000 ) ) ;
#77 = CARTESIAN_POINT ( 'NONE',  ( -17.50000000000000000, 17.49999999999999600, 0.0000000000000000000 ) ) ;
#78 = ORIENTED_EDGE ( 'NONE', *, *, #107, .F. ) ;
#79 = DIRECTION ( 'NONE',  ( -1.000000000000000000, -0.0000000000000000000, -0.0000000000000000000 ) ) ;
#80 = EDGE_CURVE ( 'NONE', #144, #191, #161, .T. ) ;
#81 = APPLICATION_CONTEXT ( 'configuration controlled 3d designs of mechanical parts and assemblies' ) ;
#82 = DATE_TIME_ROLE ( 'creation_date' ) ;
#83 = ORIENTED_EDGE ( 'NONE', *, *, #148, .T. ) ;
#84 = CARTESIAN_POINT ( 'NONE',  ( 0.0000000000000000000, 0.0000000000000000000, 0.0000000000000000000 ) ) ;
#85 = CARTESIAN_POINT ( 'NONE',  ( -17.49999999999999600, -17.50000000000000400, 1.000000000000000000 ) ) ;
#86 = CARTESIAN_POINT ( 'NONE',  ( 17.50000000000000000, 17.49999999999999600, 1.000000000000000000 ) ) ;
#87 = CARTESIAN_POINT ( 'NONE',  ( -17.49999999999999600, -17.50000000000000400, 1.000000000000000000 ) ) ;
#88 = PRODUCT_RELATED_PRODUCT_CATEGORY ( 'detail', '', ( #166 ) ) ;
#89 = CARTESIAN_POINT ( 'NONE',  ( 17.50000000000000000, 17.49999999999999600, 1.000000000000000000 ) ) ;
#90 = CARTESIAN_POINT ( 'NONE',  ( -17.49999999999999600, -17.50000000000000400, 1.000000000000000000 ) ) ;
#91 = CARTESIAN_POINT ( 'NONE',  ( 17.50000000000000000, 17.49999999999999600, 1.000000000000000000 ) ) ;
#92 = VECTOR ( 'NONE', #183, 1000.000000000000000 ) ;
#93 = DIRECTION ( 'NONE',  ( 0.0000000000000000000, -0.0000000000000000000, -1.000000000000000000 ) ) ;
#94 = LINE ( 'NONE', #29, #102 ) ;
#95 = APPROVAL_ROLE ( '' ) ;
#96 = CARTESIAN_POINT ( 'NONE',  ( 17.50000000000000400, -17.50000000000000400, 1.000000000000000000 ) ) ;
#97 = MANIFOLD_SOLID_BREP ( 'Boss-Extrude1', #108 ) ;
#98 = CARTESIAN_POINT ( 'NONE',  ( -17.50000000000000000, 17.49999999999999600, 0.0000000000000000000 ) ) ;
#99 = CARTESIAN_POINT ( 'NONE',  ( -17.50000000000000000, 17.49999999999999600, 1.000000000000000000 ) ) ;
#100 = DIRECTION ( 'NONE',  ( -1.000000000000000000, -0.0000000000000000000, -0.0000000000000000000 ) ) ;
#101 = AXIS2_PLACEMENT_3D ( 'NONE', #10, #2, #171 ) ;
#102 = VECTOR ( 'NONE', #100, 1000.000000000000000 ) ;
#103 = LINE ( 'NONE', #98, #180 ) ;
#104 =( GEOMETRIC_REPRESENTATION_CONTEXT ( 3 ) GLOBAL_UNCERTAINTY_ASSIGNED_CONTEXT ( ( #173 ) ) GLOBAL_UNIT_ASSIGNED_CONTEXT ( ( #42, #230, #71 ) ) REPRESENTATION_CONTEXT ( 'NONE', 'WORKASPACE' ) );
#105 = FACE_OUTER_BOUND ( 'NONE', #233, .T. ) ;
#106 = LINE ( 'NONE', #91, #163 ) ;
#107 = EDGE_CURVE ( 'NONE', #187, #144, #209, .T. ) ;
#108 = CLOSED_SHELL ( 'NONE', ( #181, #194, #156, #28, #114, #189 ) ) ;
#109 = ORGANIZATION ( 'UNSPECIFIED', 'UNSPECIFIED', '' ) ;
#110 = SHAPE_DEFINITION_REPRESENTATION ( #44, #213 ) ;
#111 = PLANE ( 'NONE',  #143 ) ;
#112 = VECTOR ( 'NONE', #79, 1000.000000000000000 ) ;
#113 = AXIS2_PLACEMENT_3D ( 'NONE', #89, #176, #135 ) ;
#114 = ADVANCED_FACE ( 'NONE', ( #195 ), #37, .T. ) ;
#115 = APPROVAL_STATUS ( 'not_yet_approved' ) ;
#116 = EDGE_CURVE ( 'NONE', #64, #144, #125, .T. ) ;
#117 = VECTOR ( 'NONE', #33, 1000.000000000000000 ) ;
#118 = DIRECTION ( 'NONE',  ( -0.0000000000000000000, 0.0000000000000000000, 1.000000000000000000 ) ) ;
#119 = LINE ( 'NONE', #11, #112 ) ;
#120 = LINE ( 'NONE', #27, #117 ) ;
#121 = CARTESIAN_POINT ( 'NONE',  ( 0.0000000000000000000, 0.0000000000000000000, 0.0000000000000000000 ) ) ;
#122 = LINE ( 'NONE', #85, #235 ) ;
#123 = LINE ( 'NONE', #190, #92 ) ;
#124 = LINE ( 'NONE', #86, #127 ) ;
#125 = LINE ( 'NONE', #96, #52 ) ;
#126 = FACE_OUTER_BOUND ( 'NONE', #208, .T. ) ;
#127 = VECTOR ( 'NONE', #164, 1000.000000000000000 ) ;
#128 = LINE ( 'NONE', #90, #185 ) ;
#129 = ORIENTED_EDGE ( 'NONE', *, *, #80, .T. ) ;
#130 = EDGE_LOOP ( 'NONE', ( #221, #217, #212, #83 ) ) ;
#131 = AXIS2_PLACEMENT_3D ( 'NONE', #99, #7, #76 ) ;
#132 = APPROVAL_STATUS ( 'not_yet_approved' ) ;
#133 = DIRECTION ( 'NONE',  ( 1.982541115402065100E-016, -1.000000000000000000, 0.0000000000000000000 ) ) ;
#134 = DIRECTION ( 'NONE',  ( 1.000000000000000000, 0.0000000000000000000, 0.0000000000000000000 ) ) ;
#135 = DIRECTION ( 'NONE',  ( 9.912705577010325500E-017, -1.000000000000000000, 0.0000000000000000000 ) ) ;
#136 = PERSON ( 'UNSPECIFIED', 'UNSPECIFIED', 'UNSPECIFIED', ('UNSPECIFIED'), ('UNSPECIFIED'), ('UNSPECIFIED') ) ;
#137 = CALENDAR_DATE ( 2017, 22, 5 ) ;
#138 = CARTESIAN_POINT ( 'NONE',  ( 17.50000000000000400, -17.50000000000000400, 0.0000000000000000000 ) ) ;
#139 = DIRECTION ( 'NONE',  ( -0.0000000000000000000, -0.0000000000000000000, -1.000000000000000000 ) ) ;
#140 = PERSON_AND_ORGANIZATION ( #136, #109 ) ;
#141 = APPLICATION_PROTOCOL_DEFINITION ( 'international standard', 'config_control_design', 1994, #198 ) ;
#142 = DATE_AND_TIME ( #137, #150 ) ;
#143 = AXIS2_PLACEMENT_3D ( 'NONE', #84, #62, #134 ) ;
#144 = VERTEX_POINT ( 'NONE', #138 ) ;
#145 = APPROVAL_PERSON_ORGANIZATION ( #160, #59, #177 ) ;
#146 = COORDINATED_UNIVERSAL_TIME_OFFSET ( 7, 0, .BEHIND. ) ;
#147 = DIRECTION ( 'NONE',  ( 1.000000000000000000, 0.0000000000000000000, 0.0000000000000000000 ) ) ;
#148 = EDGE_CURVE ( 'NONE', #61, #187, #128, .T. ) ;
#149 = APPROVAL_ROLE ( '' ) ;
#150 = LOCAL_TIME ( 13, 26, 42.00000000000000000, #146 ) ;
#151 = APPROVAL_STATUS ( 'not_yet_approved' ) ;
#152 = DATE_TIME_ROLE ( 'classification_date' ) ;
#153 = PERSON_AND_ORGANIZATION_ROLE ( 'classification_officer' ) ;
#154 = SECURITY_CLASSIFICATION_LEVEL ( 'unclassified' ) ;
#155 = PERSON_AND_ORGANIZATION_ROLE ( 'design_supplier' ) ;
#156 = ADVANCED_FACE ( 'NONE', ( #186 ), #193, .F. ) ;
#157 = DESIGN_CONTEXT ( 'detailed design', #198, 'design' ) ;
#158 = PERSON_AND_ORGANIZATION_ROLE ( 'creator' ) ;
#159 = CARTESIAN_POINT ( 'NONE',  ( -17.49999999999999600, -17.50000000000000400, 0.0000000000000000000 ) ) ;
#160 = PERSON_AND_ORGANIZATION ( #136, #109 ) ;
#161 = LINE ( 'NONE', #45, #182 ) ;
#162 = CARTESIAN_POINT ( 'NONE',  ( 17.50000000000000000, 17.49999999999999600, 1.000000000000000000 ) ) ;
#163 = VECTOR ( 'NONE', #41, 1000.000000000000000 ) ;
#164 = DIRECTION ( 'NONE',  ( -0.0000000000000000000, -0.0000000000000000000, -1.000000000000000000 ) ) ;
#165 = CARTESIAN_POINT ( 'NONE',  ( 17.50000000000000000, 17.49999999999999600, 0.0000000000000000000 ) ) ;
#166 = PRODUCT ( 'step_35954', 'step_35954', '', ( #206 ) ) ;
#167 = EDGE_CURVE ( 'NONE', #223, #191, #124, .T. ) ;
#168 = ORIENTED_EDGE ( 'NONE', *, *, #224, .T. ) ;
#169 = EDGE_LOOP ( 'NONE', ( #129, #202, #199, #216 ) ) ;
#170 = EDGE_CURVE ( 'NONE', #196, #203, #123, .T. ) ;
#171 = DIRECTION ( 'NONE',  ( 0.0000000000000000000, -0.0000000000000000000, 1.000000000000000000 ) ) ;
#172 = EDGE_LOOP ( 'NONE', ( #50, #197, #74, #168 ) ) ;
#173 = UNCERTAINTY_MEASURE_WITH_UNIT (LENGTH_MEASURE( 1.000000000000000100E-005 ), #42, 'distance_accuracy_value', 'NONE');
#174 = ORIENTED_EDGE ( 'NONE', *, *, #200, .F. ) ;
#175 = ORIENTED_EDGE ( 'NONE', *, *, #224, .F. ) ;
#176 = DIRECTION ( 'NONE',  ( -1.000000000000000000, -9.912705577010325500E-017, 0.0000000000000000000 ) ) ;
#177 = APPROVAL_ROLE ( '' ) ;
#178 = CARTESIAN_POINT ( 'NONE',  ( 0.0000000000000000000, 0.0000000000000000000, 1.000000000000000000 ) ) ;
#179 = ORIENTED_EDGE ( 'NONE', *, *, #200, .T. ) ;
#180 = VECTOR ( 'NONE', #133, 1000.000000000000000 ) ;
#181 = ADVANCED_FACE ( 'NONE', ( #105 ), #1, .F. ) ;
#182 = VECTOR ( 'NONE', #192, 1000.000000000000000 ) ;
#183 = DIRECTION ( 'NONE',  ( -0.0000000000000000000, -0.0000000000000000000, -1.000000000000000000 ) ) ;
#184 = ORIENTED_EDGE ( 'NONE', *, *, #80, .F. ) ;
#185 = VECTOR ( 'NONE', #139, 1000.000000000000000 ) ;
#186 = FACE_OUTER_BOUND ( 'NONE', #169, .T. ) ;
#187 = VERTEX_POINT ( 'NONE', #159 ) ;
#188 = COORDINATED_UNIVERSAL_TIME_OFFSET ( 7, 0, .BEHIND. ) ;
#189 = ADVANCED_FACE ( 'NONE', ( #126 ), #111, .F. ) ;
#190 = CARTESIAN_POINT ( 'NONE',  ( -17.50000000000000000, 17.49999999999999600, 1.000000000000000000 ) ) ;
#191 = VERTEX_POINT ( 'NONE', #165 ) ;
#192 = DIRECTION ( 'NONE',  ( -9.912705577010325500E-017, 1.000000000000000000, -0.0000000000000000000 ) ) ;
#193 = PLANE ( 'NONE',  #113 ) ;
#194 = ADVANCED_FACE ( 'NONE', ( #73 ), #69, .F. ) ;
#195 = FACE_OUTER_BOUND ( 'NONE', #172, .T. ) ;
#196 = VERTEX_POINT ( 'NONE', #12 ) ;
#197 = ORIENTED_EDGE ( 'NONE', *, *, #220, .T. ) ;
#198 = APPLICATION_CONTEXT ( 'configuration controlled 3d designs of mechanical parts and assemblies' ) ;
#199 = ORIENTED_EDGE ( 'NONE', *, *, #231, .F. ) ;
#200 = EDGE_CURVE ( 'NONE', #191, #203, #94, .T. ) ;
#201 = ORIENTED_EDGE ( 'NONE', *, *, #170, .F. ) ;
#202 = ORIENTED_EDGE ( 'NONE', *, *, #167, .F. ) ;
#203 = VERTEX_POINT ( 'NONE', #77 ) ;
#204 = PERSON_AND_ORGANIZATION_ROLE ( 'design_owner' ) ;
#205 = APPROVAL_DATE_TIME ( #229, #14 ) ;
#206 = MECHANICAL_CONTEXT ( 'NONE', #81, 'mechanical' ) ;
#207 = ORIENTED_EDGE ( 'NONE', *, *, #167, .T. ) ;
#208 = EDGE_LOOP ( 'NONE', ( #227, #174, #184, #78 ) ) ;
#209 = LINE ( 'NONE', #225, #51 ) ;
#210 = PERSON_AND_ORGANIZATION_ROLE ( 'creator' ) ;
#211 = AXIS2_PLACEMENT_3D ( 'NONE', #178, #118, #147 ) ;
#212 = ORIENTED_EDGE ( 'NONE', *, *, #220, .F. ) ;
#213 = ADVANCED_BREP_SHAPE_REPRESENTATION ( 'step_35954', ( #97, #70 ), #104 ) ;
#214 = ORIENTED_EDGE ( 'NONE', *, *, #170, .T. ) ;
#215 = DIRECTION ( 'NONE',  ( 1.000000000000000000, 0.0000000000000000000, 0.0000000000000000000 ) ) ;
#216 = ORIENTED_EDGE ( 'NONE', *, *, #116, .T. ) ;
#217 = ORIENTED_EDGE ( 'NONE', *, *, #116, .F. ) ;
#218 = DIRECTION ( 'NONE',  ( 0.0000000000000000000, 0.0000000000000000000, 1.000000000000000000 ) ) ;
#219 = EDGE_LOOP ( 'NONE', ( #179, #201, #175, #207 ) ) ;
#220 = EDGE_CURVE ( 'NONE', #61, #64, #122, .T. ) ;
#221 = ORIENTED_EDGE ( 'NONE', *, *, #107, .T. ) ;
#222 = ORIENTED_EDGE ( 'NONE', *, *, #148, .F. ) ;
#223 = VERTEX_POINT ( 'NONE', #162 ) ;
#224 = EDGE_CURVE ( 'NONE', #223, #196, #119, .T. ) ;
#225 = CARTESIAN_POINT ( 'NONE',  ( -17.49999999999999600, -17.50000000000000400, 0.0000000000000000000 ) ) ;
#226 = PLANE ( 'NONE',  #236 ) ;
#227 = ORIENTED_EDGE ( 'NONE', *, *, #237, .F. ) ;
#228 = DIRECTION ( 'NONE',  ( 0.0000000000000000000, -1.000000000000000000, 0.0000000000000000000 ) ) ;
#229 = DATE_AND_TIME ( #4, #6 ) ;
#230 =( NAMED_UNIT ( * ) PLANE_ANGLE_UNIT ( ) SI_UNIT ( $, .RADIAN. ) );
#231 = EDGE_CURVE ( 'NONE', #64, #223, #106, .T. ) ;
#232 = ORIENTED_EDGE ( 'NONE', *, *, #234, .F. ) ;
#233 = EDGE_LOOP ( 'NONE', ( #65, #222, #232, #214 ) ) ;
#234 = EDGE_CURVE ( 'NONE', #196, #61, #120, .T. ) ;
#235 = VECTOR ( 'NONE', #66, 1000.000000000000000 ) ;
#236 = AXIS2_PLACEMENT_3D ( 'NONE', #67, #228, #93 ) ;
#237 = EDGE_CURVE ( 'NONE', #203, #187, #103, .T. ) ;
ENDSEC;
END-ISO-10303-21;
