ISO-10303-21;
HEADER;
FILE_DESCRIPTION (( 'STEP AP203' ),
    '1' );
FILE_NAME ('Web Model 22036_22040.step',
    '2022-06-08T15:10:05',
    ( '' ),
    ( '' ),
    'SwSTEP 2.0',
    'SolidWorks 2021',
    '' );
FILE_SCHEMA (( 'CONFIG_CONTROL_DESIGN' ));
ENDSEC;

DATA;
#1 = CARTESIAN_POINT ( 'NONE',  ( 0.000000000000000000, 0.000000000000000000, 0.000000000000000000 ) ) ;
#2 = MANIFOLD_SOLID_BREP ( 'Boss-Extrude1', #76 ) ;
#3 = DIRECTION ( 'NONE',  ( -0.000000000000000000, -0.000000000000000000, -1.000000000000000000 ) ) ;
#4 = PRODUCT_DEFINITION_FORMATION_WITH_SPECIFIED_SOURCE ( 'ANY', '', #22, .NOT_KNOWN. ) ;
#5 = AXIS2_PLACEMENT_3D ( 'NONE', #28, #63, #66 ) ;
#6 = CARTESIAN_POINT ( 'NONE',  ( -12.50000000000000000, 0.000000000000000000, 0.000000000000000000 ) ) ;
#7 = SHAPE_DEFINITION_REPRESENTATION ( #46, #48 ) ;
#8 = APPROVAL_STATUS ( 'not_yet_approved' ) ;
#9 = ORIENTED_EDGE ( 'NONE', *, *, #102, .T. ) ;
#10 = PERSON_AND_ORGANIZATION ( #37, #129 ) ;
#11 = ORIENTED_EDGE ( 'NONE', *, *, #149, .F. ) ;
#12 = APPROVAL_DATE_TIME ( #78, #136 ) ;
#13 = MECHANICAL_CONTEXT ( 'NONE', #70, 'mechanical' ) ;
#14 =( LENGTH_UNIT ( ) NAMED_UNIT ( * ) SI_UNIT ( .MILLI., .METRE. ) );
#15 = DIRECTION ( 'NONE',  ( 1.000000000000000000, 0.000000000000000000, 0.000000000000000000 ) ) ;
#16 = PERSON_AND_ORGANIZATION ( #37, #129 ) ;
#17 = DIRECTION ( 'NONE',  ( 0.000000000000000000, 0.000000000000000000, 1.000000000000000000 ) ) ;
#18 = CIRCLE ( 'NONE', #57, 12.50000000000000000 ) ;
#19 = PERSON_AND_ORGANIZATION ( #37, #129 ) ;
#20 = EDGE_LOOP ( 'NONE', ( #86, #53 ) ) ;
#21 = CIRCLE ( 'NONE', #139, 12.50000000000000000 ) ;
#22 = PRODUCT ( 'Web Model 22036_22040', 'Web Model 22036_22040', '', ( #13 ) ) ;
#23 = PERSON_AND_ORGANIZATION ( #37, #129 ) ;
#24 = UNCERTAINTY_MEASURE_WITH_UNIT (LENGTH_MEASURE( 1.000000000000000082E-05 ), #14, 'distance_accuracy_value', 'NONE');
#25 = DIRECTION ( 'NONE',  ( 0.000000000000000000, 0.000000000000000000, 1.000000000000000000 ) ) ;
#26 = DIRECTION ( 'NONE',  ( 0.000000000000000000, 0.000000000000000000, 1.000000000000000000 ) ) ;
#27 = EDGE_CURVE ( 'NONE', #133, #97, #18, .T. ) ;
#28 = CARTESIAN_POINT ( 'NONE',  ( 0.000000000000000000, 0.000000000000000000, 0.2000000000000000111 ) ) ;
#29 = DIRECTION ( 'NONE',  ( -0.000000000000000000, -0.000000000000000000, -1.000000000000000000 ) ) ;
#30 = APPROVAL_DATE_TIME ( #131, #108 ) ;
#31 = ADVANCED_FACE ( 'NONE', ( #134 ), #52, .F. ) ;
#32 = APPROVAL_ROLE ( '' ) ;
#33 = DATE_AND_TIME ( #119, #161 ) ;
#34 = APPROVAL_PERSON_ORGANIZATION ( #23, #136, #88 ) ;
#35 = COORDINATED_UNIVERSAL_TIME_OFFSET ( 5, 0, .BEHIND. ) ;
#36 = APPROVAL ( #71, 'UNSPECIFIED' ) ;
#37 = PERSON ( 'UNSPECIFIED', 'UNSPECIFIED', 'UNSPECIFIED', ('UNSPECIFIED'), ('UNSPECIFIED'), ('UNSPECIFIED') ) ;
#38 = ORIENTED_EDGE ( 'NONE', *, *, #27, .F. ) ;
#39 = CARTESIAN_POINT ( 'NONE',  ( 12.50000000000000000, 1.530808498934191521E-15, 0.000000000000000000 ) ) ;
#40 = CC_DESIGN_PERSON_AND_ORGANIZATION_ASSIGNMENT ( #120, #95, ( #56 ) ) ;
#41 = ORIENTED_EDGE ( 'NONE', *, *, #172, .F. ) ;
#42 = CARTESIAN_POINT ( 'NONE',  ( -12.50000000000000000, 0.000000000000000000, 0.2000000000000000111 ) ) ;
#43 = EDGE_LOOP ( 'NONE', ( #41, #96 ) ) ;
#44 = CC_DESIGN_PERSON_AND_ORGANIZATION_ASSIGNMENT ( #10, #164, ( #22 ) ) ;
#45 = CARTESIAN_POINT ( 'NONE',  ( 0.000000000000000000, 0.000000000000000000, 0.000000000000000000 ) ) ;
#46 = PRODUCT_DEFINITION_SHAPE ( 'NONE', 'NONE',  #127 ) ;
#47 = PLANE ( 'NONE',  #5 ) ;
#48 = ADVANCED_BREP_SHAPE_REPRESENTATION ( 'Web Model 22036_22040', ( #2, #107 ), #162 ) ;
#49 = APPROVAL_PERSON_ORGANIZATION ( #170, #36, #68 ) ;
#50 = PERSON_AND_ORGANIZATION ( #37, #129 ) ;
#51 = ADVANCED_FACE ( 'NONE', ( #148 ), #75, .T. ) ;
#52 = PLANE ( 'NONE',  #117 ) ;
#53 = ORIENTED_EDGE ( 'NONE', *, *, #173, .T. ) ;
#54 = CARTESIAN_POINT ( 'NONE',  ( 0.000000000000000000, 0.000000000000000000, 0.000000000000000000 ) ) ;
#55 = DIRECTION ( 'NONE',  ( 1.000000000000000000, 0.000000000000000000, 0.000000000000000000 ) ) ;
#56 = SECURITY_CLASSIFICATION ( '', '', #132 ) ;
#57 = AXIS2_PLACEMENT_3D ( 'NONE', #73, #17, #55 ) ;
#58 = DIRECTION ( 'NONE',  ( -1.000000000000000000, 0.000000000000000000, 0.000000000000000000 ) ) ;
#59 = LOCAL_TIME ( 11, 10, 5.000000000000000000, #35 ) ;
#60 = CC_DESIGN_PERSON_AND_ORGANIZATION_ASSIGNMENT ( #128, #79, ( #127 ) ) ;
#61 = CARTESIAN_POINT ( 'NONE',  ( 0.000000000000000000, 0.000000000000000000, 0.000000000000000000 ) ) ;
#62 = VERTEX_POINT ( 'NONE', #39 ) ;
#63 = DIRECTION ( 'NONE',  ( 0.000000000000000000, 0.000000000000000000, 1.000000000000000000 ) ) ;
#64 = DESIGN_CONTEXT ( 'detailed design', #113, 'design' ) ;
#65 = COORDINATED_UNIVERSAL_TIME_OFFSET ( 5, 0, .BEHIND. ) ;
#66 = DIRECTION ( 'NONE',  ( 1.000000000000000000, 0.000000000000000000, -0.000000000000000000 ) ) ;
#67 = LOCAL_TIME ( 11, 10, 5.000000000000000000, #65 ) ;
#68 = APPROVAL_ROLE ( '' ) ;
#69 = DATE_AND_TIME ( #135, #59 ) ;
#70 = APPLICATION_CONTEXT ( 'configuration controlled 3d designs of mechanical parts and assemblies' ) ;
#71 = APPROVAL_STATUS ( 'not_yet_approved' ) ;
#72 = EDGE_LOOP ( 'NONE', ( #11, #38, #138, #171 ) ) ;
#73 = CARTESIAN_POINT ( 'NONE',  ( 0.000000000000000000, 0.000000000000000000, 0.2000000000000000111 ) ) ;
#74 = CC_DESIGN_APPROVAL ( #108, ( #56 ) ) ;
#75 = CYLINDRICAL_SURFACE ( 'NONE', #87, 12.50000000000000000 ) ;
#76 = CLOSED_SHELL ( 'NONE', ( #144, #51, #99, #31 ) ) ;
#77 = CC_DESIGN_DATE_AND_TIME_ASSIGNMENT ( #155, #118, ( #127 ) ) ;
#78 = DATE_AND_TIME ( #125, #126 ) ;
#79 = PERSON_AND_ORGANIZATION_ROLE ( 'creator' ) ;
#80 = COORDINATED_UNIVERSAL_TIME_OFFSET ( 5, 0, .BEHIND. ) ;
#81 = DIRECTION ( 'NONE',  ( 1.000000000000000000, 0.000000000000000000, 0.000000000000000000 ) ) ;
#82 = CC_DESIGN_PERSON_AND_ORGANIZATION_ASSIGNMENT ( #50, #156, ( #4 ) ) ;
#83 = ORIENTED_EDGE ( 'NONE', *, *, #121, .F. ) ;
#84 = DIRECTION ( 'NONE',  ( 0.000000000000000000, 0.000000000000000000, 1.000000000000000000 ) ) ;
#85 = PRODUCT_RELATED_PRODUCT_CATEGORY ( 'detail', '', ( #22 ) ) ;
#86 = ORIENTED_EDGE ( 'NONE', *, *, #27, .T. ) ;
#87 = AXIS2_PLACEMENT_3D ( 'NONE', #123, #174, #58 ) ;
#88 = APPROVAL_ROLE ( '' ) ;
#89 = DIRECTION ( 'NONE',  ( 1.000000000000000000, 0.000000000000000000, 0.000000000000000000 ) ) ;
#90 = CALENDAR_DATE ( 2022, 8, 6 ) ;
#91 = CC_DESIGN_PERSON_AND_ORGANIZATION_ASSIGNMENT ( #16, #105, ( #4 ) ) ;
#92 = DATE_TIME_ROLE ( 'classification_date' ) ;
#93 = AXIS2_PLACEMENT_3D ( 'NONE', #142, #100, #15 ) ;
#94 = CC_DESIGN_DATE_AND_TIME_ASSIGNMENT ( #33, #92, ( #56 ) ) ;
#95 = PERSON_AND_ORGANIZATION_ROLE ( 'classification_officer' ) ;
#96 = ORIENTED_EDGE ( 'NONE', *, *, #102, .F. ) ;
#97 = VERTEX_POINT ( 'NONE', #103 ) ;
#98 = APPLICATION_PROTOCOL_DEFINITION ( 'international standard', 'config_control_design', 1994, #113 ) ;
#99 = ADVANCED_FACE ( 'NONE', ( #143 ), #47, .T. ) ;
#100 = DIRECTION ( 'NONE',  ( 0.000000000000000000, 0.000000000000000000, 1.000000000000000000 ) ) ;
#101 = LINE ( 'NONE', #42, #175 ) ;
#102 = EDGE_CURVE ( 'NONE', #62, #137, #21, .T. ) ;
#103 = CARTESIAN_POINT ( 'NONE',  ( 12.50000000000000000, 1.530808498934191521E-15, 0.2000000000000000111 ) ) ;
#104 = CARTESIAN_POINT ( 'NONE',  ( 0.000000000000000000, 0.000000000000000000, 0.2000000000000000111 ) ) ;
#105 = PERSON_AND_ORGANIZATION_ROLE ( 'creator' ) ;
#106 = ORIENTED_EDGE ( 'NONE', *, *, #173, .F. ) ;
#107 = AXIS2_PLACEMENT_3D ( 'NONE', #61, #110, #165 ) ;
#108 = APPROVAL ( #8, 'UNSPECIFIED' ) ;
#109 = EDGE_LOOP ( 'NONE', ( #106, #160, #9, #83 ) ) ;
#110 = DIRECTION ( 'NONE',  ( 0.000000000000000000, 0.000000000000000000, 1.000000000000000000 ) ) ;
#111 = FACE_OUTER_BOUND ( 'NONE', #109, .T. ) ;
#112 = CARTESIAN_POINT ( 'NONE',  ( -12.50000000000000000, 0.000000000000000000, 0.2000000000000000111 ) ) ;
#113 = APPLICATION_CONTEXT ( 'configuration controlled 3d designs of mechanical parts and assemblies' ) ;
#114 = CALENDAR_DATE ( 2022, 8, 6 ) ;
#115 = CC_DESIGN_APPROVAL ( #36, ( #4 ) ) ;
#116 = DIRECTION ( 'NONE',  ( -1.000000000000000000, 0.000000000000000000, 0.000000000000000000 ) ) ;
#117 = AXIS2_PLACEMENT_3D ( 'NONE', #54, #84, #163 ) ;
#118 = DATE_TIME_ROLE ( 'creation_date' ) ;
#119 = CALENDAR_DATE ( 2022, 8, 6 ) ;
#120 = PERSON_AND_ORGANIZATION ( #37, #129 ) ;
#121 = EDGE_CURVE ( 'NONE', #133, #137, #101, .T. ) ;
#122 = CC_DESIGN_SECURITY_CLASSIFICATION ( #56, ( #4 ) ) ;
#123 = CARTESIAN_POINT ( 'NONE',  ( 0.000000000000000000, 0.000000000000000000, 0.2000000000000000111 ) ) ;
#124 = AXIS2_PLACEMENT_3D ( 'NONE', #45, #26, #89 ) ;
#125 = CALENDAR_DATE ( 2022, 8, 6 ) ;
#126 = LOCAL_TIME ( 11, 10, 5.000000000000000000, #80 ) ;
#127 = PRODUCT_DEFINITION ( 'UNKNOWN', '', #4, #64 ) ;
#128 = PERSON_AND_ORGANIZATION ( #37, #129 ) ;
#129 = ORGANIZATION ( 'UNSPECIFIED', 'UNSPECIFIED', '' ) ;
#130 = VECTOR ( 'NONE', #166, 1000.000000000000000 ) ;
#131 = DATE_AND_TIME ( #90, #150 ) ;
#132 = SECURITY_CLASSIFICATION_LEVEL ( 'unclassified' ) ;
#133 = VERTEX_POINT ( 'NONE', #112 ) ;
#134 = FACE_OUTER_BOUND ( 'NONE', #43, .T. ) ;
#135 = CALENDAR_DATE ( 2022, 8, 6 ) ;
#136 = APPROVAL ( #140, 'UNSPECIFIED' ) ;
#137 = VERTEX_POINT ( 'NONE', #6 ) ;
#138 = ORIENTED_EDGE ( 'NONE', *, *, #121, .T. ) ;
#139 = AXIS2_PLACEMENT_3D ( 'NONE', #1, #25, #81 ) ;
#140 = APPROVAL_STATUS ( 'not_yet_approved' ) ;
#141 = CARTESIAN_POINT ( 'NONE',  ( 12.50000000000000000, 1.530808498934191521E-15, 0.2000000000000000111 ) ) ;
#142 = CARTESIAN_POINT ( 'NONE',  ( 0.000000000000000000, 0.000000000000000000, 0.2000000000000000111 ) ) ;
#143 = FACE_OUTER_BOUND ( 'NONE', #20, .T. ) ;
#144 = ADVANCED_FACE ( 'NONE', ( #111 ), #153, .T. ) ;
#145 = COORDINATED_UNIVERSAL_TIME_OFFSET ( 5, 0, .BEHIND. ) ;
#146 = CIRCLE ( 'NONE', #93, 12.50000000000000000 ) ;
#147 = CC_DESIGN_APPROVAL ( #136, ( #127 ) ) ;
#148 = FACE_OUTER_BOUND ( 'NONE', #72, .T. ) ;
#149 = EDGE_CURVE ( 'NONE', #97, #62, #154, .T. ) ;
#150 = LOCAL_TIME ( 11, 10, 5.000000000000000000, #157 ) ;
#151 = APPLICATION_PROTOCOL_DEFINITION ( 'international standard', 'config_control_design', 1994, #70 ) ;
#152 = CIRCLE ( 'NONE', #124, 12.50000000000000000 ) ;
#153 = CYLINDRICAL_SURFACE ( 'NONE', #159, 12.50000000000000000 ) ;
#154 = LINE ( 'NONE', #141, #130 ) ;
#155 = DATE_AND_TIME ( #114, #67 ) ;
#156 = PERSON_AND_ORGANIZATION_ROLE ( 'design_supplier' ) ;
#157 = COORDINATED_UNIVERSAL_TIME_OFFSET ( 5, 0, .BEHIND. ) ;
#158 = APPROVAL_DATE_TIME ( #69, #36 ) ;
#159 = AXIS2_PLACEMENT_3D ( 'NONE', #104, #29, #116 ) ;
#160 = ORIENTED_EDGE ( 'NONE', *, *, #149, .T. ) ;
#161 = LOCAL_TIME ( 11, 10, 5.000000000000000000, #145 ) ;
#162 =( GEOMETRIC_REPRESENTATION_CONTEXT ( 3 ) GLOBAL_UNCERTAINTY_ASSIGNED_CONTEXT ( ( #24 ) ) GLOBAL_UNIT_ASSIGNED_CONTEXT ( ( #14, #167, #169 ) ) REPRESENTATION_CONTEXT ( 'NONE', 'WORKASPACE' ) );
#163 = DIRECTION ( 'NONE',  ( 1.000000000000000000, 0.000000000000000000, -0.000000000000000000 ) ) ;
#164 = PERSON_AND_ORGANIZATION_ROLE ( 'design_owner' ) ;
#165 = DIRECTION ( 'NONE',  ( 1.000000000000000000, 0.000000000000000000, 0.000000000000000000 ) ) ;
#166 = DIRECTION ( 'NONE',  ( -0.000000000000000000, -0.000000000000000000, -1.000000000000000000 ) ) ;
#167 =( NAMED_UNIT ( * ) PLANE_ANGLE_UNIT ( ) SI_UNIT ( $, .RADIAN. ) );
#168 = APPROVAL_PERSON_ORGANIZATION ( #19, #108, #32 ) ;
#169 =( NAMED_UNIT ( * ) SI_UNIT ( $, .STERADIAN. ) SOLID_ANGLE_UNIT ( ) );
#170 = PERSON_AND_ORGANIZATION ( #37, #129 ) ;
#171 = ORIENTED_EDGE ( 'NONE', *, *, #172, .T. ) ;
#172 = EDGE_CURVE ( 'NONE', #137, #62, #152, .T. ) ;
#173 = EDGE_CURVE ( 'NONE', #97, #133, #146, .T. ) ;
#174 = DIRECTION ( 'NONE',  ( -0.000000000000000000, -0.000000000000000000, -1.000000000000000000 ) ) ;
#175 = VECTOR ( 'NONE', #3, 1000.000000000000000 ) ;
ENDSEC;
END-ISO-10303-21;
