ISO-10303-21;
HEADER;
FILE_DESCRIPTION (( 'STEP AP203' ),
    '1' );
FILE_NAME ('Web Model 15403_15421.step',
    '2022-03-11T18:19:48',
    ( '' ),
    ( '' ),
    'SwSTEP 2.0',
    'SolidWorks 2021',
    '' );
FILE_SCHEMA (( 'CONFIG_CONTROL_DESIGN' ));
ENDSEC;

DATA;
#1 = LINE ( 'NONE', #66, #173 ) ;
#2 = LOCAL_TIME ( 13, 19, 48.00000000000000000, #120 ) ;
#3 = DIRECTION ( 'NONE',  ( 0.000000000000000000, 0.000000000000000000, -1.000000000000000000 ) ) ;
#4 = ORIENTED_EDGE ( 'NONE', *, *, #102, .T. ) ;
#5 = APPLICATION_CONTEXT ( 'configuration controlled 3d designs of mechanical parts and assemblies' ) ;
#6 = SECURITY_CLASSIFICATION ( '', '', #92 ) ;
#7 = CC_DESIGN_PERSON_AND_ORGANIZATION_ASSIGNMENT ( #138, #22, ( #123 ) ) ;
#8 = DIRECTION ( 'NONE',  ( 0.000000000000000000, 0.000000000000000000, 1.000000000000000000 ) ) ;
#9 = PERSON_AND_ORGANIZATION ( #163, #133 ) ;
#10 = APPROVAL_DATE_TIME ( #25, #154 ) ;
#11 = CIRCLE ( 'NONE', #35, 12.69999999999999929 ) ;
#12 = PERSON_AND_ORGANIZATION ( #163, #133 ) ;
#13 = ADVANCED_FACE ( 'NONE', ( #137 ), #124, .F. ) ;
#14 = CC_DESIGN_SECURITY_CLASSIFICATION ( #6, ( #123 ) ) ;
#15 = CARTESIAN_POINT ( 'NONE',  ( -1.500000000000000000, 0.000000000000000000, 0.000000000000000000 ) ) ;
#16 = ORIENTED_EDGE ( 'NONE', *, *, #17, .T. ) ;
#17 = EDGE_CURVE ( 'NONE', #146, #109, #158, .T. ) ;
#18 = ORIENTED_EDGE ( 'NONE', *, *, #65, .T. ) ;
#19 = AXIS2_PLACEMENT_3D ( 'NONE', #36, #90, #21 ) ;
#20 = ORIENTED_EDGE ( 'NONE', *, *, #74, .F. ) ;
#21 = DIRECTION ( 'NONE',  ( 0.000000000000000000, 0.000000000000000000, -1.000000000000000000 ) ) ;
#22 = PERSON_AND_ORGANIZATION_ROLE ( 'creator' ) ;
#23 = AXIS2_PLACEMENT_3D ( 'NONE', #145, #161, #77 ) ;
#24 = AXIS2_PLACEMENT_3D ( 'NONE', #54, #104, #8 ) ;
#25 = DATE_AND_TIME ( #38, #159 ) ;
#26 =( LENGTH_UNIT ( ) NAMED_UNIT ( * ) SI_UNIT ( .MILLI., .METRE. ) );
#27 = EDGE_CURVE ( 'NONE', #62, #146, #1, .T. ) ;
#28 = COORDINATED_UNIVERSAL_TIME_OFFSET ( 5, 0, .BEHIND. ) ;
#29 = CALENDAR_DATE ( 2022, 11, 3 ) ;
#30 = CYLINDRICAL_SURFACE ( 'NONE', #23, 12.69999999999999929 ) ;
#31 = LOCAL_TIME ( 13, 19, 48.00000000000000000, #46 ) ;
#32 = CC_DESIGN_APPROVAL ( #108, ( #6 ) ) ;
#33 = FACE_OUTER_BOUND ( 'NONE', #49, .T. ) ;
#34 = DIRECTION ( 'NONE',  ( 0.000000000000000000, 0.000000000000000000, -1.000000000000000000 ) ) ;
#35 = AXIS2_PLACEMENT_3D ( 'NONE', #126, #160, #48 ) ;
#36 = CARTESIAN_POINT ( 'NONE',  ( 1.500000000000000000, 0.000000000000000000, 0.000000000000000000 ) ) ;
#37 = APPROVAL ( #171, 'UNSPECIFIED' ) ;
#38 = CALENDAR_DATE ( 2022, 11, 3 ) ;
#39 = PERSON_AND_ORGANIZATION_ROLE ( 'design_supplier' ) ;
#40 = DESIGN_CONTEXT ( 'detailed design', #5, 'design' ) ;
#41 = VECTOR ( 'NONE', #152, 1000.000000000000000 ) ;
#42 =( NAMED_UNIT ( * ) PLANE_ANGLE_UNIT ( ) SI_UNIT ( $, .RADIAN. ) );
#43 = AXIS2_PLACEMENT_3D ( 'NONE', #101, #83, #130 ) ;
#44 = APPROVAL_STATUS ( 'not_yet_approved' ) ;
#45 = MANIFOLD_SOLID_BREP ( 'Boss-Extrude1', #106 ) ;
#46 = COORDINATED_UNIVERSAL_TIME_OFFSET ( 5, 0, .BEHIND. ) ;
#47 = ADVANCED_FACE ( 'NONE', ( #61 ), #30, .T. ) ;
#48 = DIRECTION ( 'NONE',  ( 0.000000000000000000, 0.000000000000000000, -1.000000000000000000 ) ) ;
#49 = EDGE_LOOP ( 'NONE', ( #98, #18 ) ) ;
#50 = DIRECTION ( 'NONE',  ( -1.000000000000000000, -0.000000000000000000, -0.000000000000000000 ) ) ;
#51 = ORIENTED_EDGE ( 'NONE', *, *, #175, .F. ) ;
#52 = ADVANCED_FACE ( 'NONE', ( #33 ), #88, .T. ) ;
#53 = PERSON_AND_ORGANIZATION_ROLE ( 'creator' ) ;
#54 = CARTESIAN_POINT ( 'NONE',  ( 1.500000000000000000, 0.000000000000000000, 0.000000000000000000 ) ) ;
#55 = CALENDAR_DATE ( 2022, 11, 3 ) ;
#56 = PERSON_AND_ORGANIZATION ( #163, #133 ) ;
#57 = APPLICATION_PROTOCOL_DEFINITION ( 'international standard', 'config_control_design', 1994, #5 ) ;
#58 = ADVANCED_BREP_SHAPE_REPRESENTATION ( 'Web Model 15403_15421', ( #45, #43 ), #166 ) ;
#59 = SHAPE_DEFINITION_REPRESENTATION ( #131, #58 ) ;
#60 = AXIS2_PLACEMENT_3D ( 'NONE', #144, #85, #93 ) ;
#61 = FACE_OUTER_BOUND ( 'NONE', #121, .T. ) ;
#62 = VERTEX_POINT ( 'NONE', #148 ) ;
#63 = CIRCLE ( 'NONE', #19, 12.69999999999999929 ) ;
#64 = LOCAL_TIME ( 13, 19, 48.00000000000000000, #91 ) ;
#65 = EDGE_CURVE ( 'NONE', #62, #147, #63, .T. ) ;
#66 = CARTESIAN_POINT ( 'NONE',  ( 1.500000000000000000, 1.555301434917138433E-15, -12.69999999999999929 ) ) ;
#67 = CARTESIAN_POINT ( 'NONE',  ( 1.500000000000000000, 0.000000000000000000, 0.000000000000000000 ) ) ;
#68 = CC_DESIGN_PERSON_AND_ORGANIZATION_ASSIGNMENT ( #75, #143, ( #6 ) ) ;
#69 = DIRECTION ( 'NONE',  ( 1.000000000000000000, 0.000000000000000000, 0.000000000000000000 ) ) ;
#70 = APPROVAL_PERSON_ORGANIZATION ( #172, #37, #105 ) ;
#71 = CC_DESIGN_APPROVAL ( #154, ( #123 ) ) ;
#72 = LINE ( 'NONE', #156, #41 ) ;
#73 = CALENDAR_DATE ( 2022, 11, 3 ) ;
#74 = EDGE_CURVE ( 'NONE', #147, #62, #11, .T. ) ;
#75 = PERSON_AND_ORGANIZATION ( #163, #133 ) ;
#76 = CARTESIAN_POINT ( 'NONE',  ( -1.500000000000000000, 0.000000000000000000, 0.000000000000000000 ) ) ;
#77 = DIRECTION ( 'NONE',  ( 0.000000000000000000, 0.000000000000000000, 1.000000000000000000 ) ) ;
#78 = ORIENTED_EDGE ( 'NONE', *, *, #27, .T. ) ;
#79 = APPROVAL_PERSON_ORGANIZATION ( #12, #108, #94 ) ;
#80 = ORIENTED_EDGE ( 'NONE', *, *, #17, .F. ) ;
#81 = MECHANICAL_CONTEXT ( 'NONE', #134, 'mechanical' ) ;
#82 = LOCAL_TIME ( 13, 19, 48.00000000000000000, #28 ) ;
#83 = DIRECTION ( 'NONE',  ( 0.000000000000000000, 0.000000000000000000, 1.000000000000000000 ) ) ;
#84 = APPROVAL_DATE_TIME ( #119, #108 ) ;
#85 = DIRECTION ( 'NONE',  ( 1.000000000000000000, 0.000000000000000000, 0.000000000000000000 ) ) ;
#86 = PRODUCT_RELATED_PRODUCT_CATEGORY ( 'detail', '', ( #118 ) ) ;
#87 = UNCERTAINTY_MEASURE_WITH_UNIT (LENGTH_MEASURE( 1.000000000000000082E-05 ), #26, 'distance_accuracy_value', 'NONE');
#88 = PLANE ( 'NONE',  #157 ) ;
#89 = AXIS2_PLACEMENT_3D ( 'NONE', #15, #110, #3 ) ;
#90 = DIRECTION ( 'NONE',  ( 1.000000000000000000, 0.000000000000000000, 0.000000000000000000 ) ) ;
#91 = COORDINATED_UNIVERSAL_TIME_OFFSET ( 5, 0, .BEHIND. ) ;
#92 = SECURITY_CLASSIFICATION_LEVEL ( 'unclassified' ) ;
#93 = DIRECTION ( 'NONE',  ( 0.000000000000000000, 0.000000000000000000, -1.000000000000000000 ) ) ;
#94 = APPROVAL_ROLE ( '' ) ;
#95 = PRODUCT_DEFINITION ( 'UNKNOWN', '', #123, #40 ) ;
#96 = ORIENTED_EDGE ( 'NONE', *, *, #102, .F. ) ;
#97 = CC_DESIGN_DATE_AND_TIME_ASSIGNMENT ( #113, #115, ( #95 ) ) ;
#98 = ORIENTED_EDGE ( 'NONE', *, *, #74, .T. ) ;
#99 = AXIS2_PLACEMENT_3D ( 'NONE', #76, #69, #34 ) ;
#100 = DIRECTION ( 'NONE',  ( 0.000000000000000000, 0.000000000000000000, -1.000000000000000000 ) ) ;
#101 = CARTESIAN_POINT ( 'NONE',  ( 0.000000000000000000, 0.000000000000000000, 0.000000000000000000 ) ) ;
#102 = EDGE_CURVE ( 'NONE', #109, #146, #128, .T. ) ;
#103 = CARTESIAN_POINT ( 'NONE',  ( -1.500000000000000000, 1.555301434917138433E-15, -12.69999999999999929 ) ) ;
#104 = DIRECTION ( 'NONE',  ( -1.000000000000000000, -0.000000000000000000, -0.000000000000000000 ) ) ;
#105 = APPROVAL_ROLE ( '' ) ;
#106 = CLOSED_SHELL ( 'NONE', ( #169, #47, #52, #13 ) ) ;
#107 = DATE_AND_TIME ( #142, #2 ) ;
#108 = APPROVAL ( #132, 'UNSPECIFIED' ) ;
#109 = VERTEX_POINT ( 'NONE', #114 ) ;
#110 = DIRECTION ( 'NONE',  ( 1.000000000000000000, 0.000000000000000000, 0.000000000000000000 ) ) ;
#111 = DIRECTION ( 'NONE',  ( 1.000000000000000000, 0.000000000000000000, 0.000000000000000000 ) ) ;
#112 = APPROVAL_DATE_TIME ( #155, #37 ) ;
#113 = DATE_AND_TIME ( #73, #64 ) ;
#114 = CARTESIAN_POINT ( 'NONE',  ( -1.500000000000000000, 0.000000000000000000, 12.69999999999999929 ) ) ;
#115 = DATE_TIME_ROLE ( 'creation_date' ) ;
#116 = CYLINDRICAL_SURFACE ( 'NONE', #24, 12.69999999999999929 ) ;
#117 = CC_DESIGN_PERSON_AND_ORGANIZATION_ASSIGNMENT ( #9, #53, ( #95 ) ) ;
#118 = PRODUCT ( 'Web Model 15403_15421', 'Web Model 15403_15421', '', ( #81 ) ) ;
#119 = DATE_AND_TIME ( #29, #82 ) ;
#120 = COORDINATED_UNIVERSAL_TIME_OFFSET ( 5, 0, .BEHIND. ) ;
#121 = EDGE_LOOP ( 'NONE', ( #164, #20, #165, #4 ) ) ;
#122 = EDGE_LOOP ( 'NONE', ( #135, #78, #16, #51 ) ) ;
#123 = PRODUCT_DEFINITION_FORMATION_WITH_SPECIFIED_SOURCE ( 'ANY', '', #118, .NOT_KNOWN. ) ;
#124 = PLANE ( 'NONE',  #89 ) ;
#125 = CC_DESIGN_PERSON_AND_ORGANIZATION_ASSIGNMENT ( #139, #129, ( #118 ) ) ;
#126 = CARTESIAN_POINT ( 'NONE',  ( 1.500000000000000000, 0.000000000000000000, 0.000000000000000000 ) ) ;
#127 =( NAMED_UNIT ( * ) SI_UNIT ( $, .STERADIAN. ) SOLID_ANGLE_UNIT ( ) );
#128 = CIRCLE ( 'NONE', #60, 12.69999999999999929 ) ;
#129 = PERSON_AND_ORGANIZATION_ROLE ( 'design_owner' ) ;
#130 = DIRECTION ( 'NONE',  ( 1.000000000000000000, 0.000000000000000000, 0.000000000000000000 ) ) ;
#131 = PRODUCT_DEFINITION_SHAPE ( 'NONE', 'NONE',  #95 ) ;
#132 = APPROVAL_STATUS ( 'not_yet_approved' ) ;
#133 = ORGANIZATION ( 'UNSPECIFIED', 'UNSPECIFIED', '' ) ;
#134 = APPLICATION_CONTEXT ( 'configuration controlled 3d designs of mechanical parts and assemblies' ) ;
#135 = ORIENTED_EDGE ( 'NONE', *, *, #65, .F. ) ;
#136 = EDGE_LOOP ( 'NONE', ( #96, #80 ) ) ;
#137 = FACE_OUTER_BOUND ( 'NONE', #136, .T. ) ;
#138 = PERSON_AND_ORGANIZATION ( #163, #133 ) ;
#139 = PERSON_AND_ORGANIZATION ( #163, #133 ) ;
#140 = CARTESIAN_POINT ( 'NONE',  ( 1.500000000000000000, 0.000000000000000000, 12.69999999999999929 ) ) ;
#141 = APPROVAL_ROLE ( '' ) ;
#142 = CALENDAR_DATE ( 2022, 11, 3 ) ;
#143 = PERSON_AND_ORGANIZATION_ROLE ( 'classification_officer' ) ;
#144 = CARTESIAN_POINT ( 'NONE',  ( -1.500000000000000000, 0.000000000000000000, 0.000000000000000000 ) ) ;
#145 = CARTESIAN_POINT ( 'NONE',  ( 1.500000000000000000, 0.000000000000000000, 0.000000000000000000 ) ) ;
#146 = VERTEX_POINT ( 'NONE', #103 ) ;
#147 = VERTEX_POINT ( 'NONE', #140 ) ;
#148 = CARTESIAN_POINT ( 'NONE',  ( 1.500000000000000000, 1.555301434917138433E-15, -12.69999999999999929 ) ) ;
#149 = CC_DESIGN_DATE_AND_TIME_ASSIGNMENT ( #107, #174, ( #6 ) ) ;
#150 = COORDINATED_UNIVERSAL_TIME_OFFSET ( 5, 0, .BEHIND. ) ;
#151 = APPLICATION_PROTOCOL_DEFINITION ( 'international standard', 'config_control_design', 1994, #134 ) ;
#152 = DIRECTION ( 'NONE',  ( -1.000000000000000000, -0.000000000000000000, -0.000000000000000000 ) ) ;
#153 = APPROVAL_PERSON_ORGANIZATION ( #56, #154, #141 ) ;
#154 = APPROVAL ( #44, 'UNSPECIFIED' ) ;
#155 = DATE_AND_TIME ( #55, #31 ) ;
#156 = CARTESIAN_POINT ( 'NONE',  ( 1.500000000000000000, 0.000000000000000000, 12.69999999999999929 ) ) ;
#157 = AXIS2_PLACEMENT_3D ( 'NONE', #67, #111, #100 ) ;
#158 = CIRCLE ( 'NONE', #99, 12.69999999999999929 ) ;
#159 = LOCAL_TIME ( 13, 19, 48.00000000000000000, #150 ) ;
#160 = DIRECTION ( 'NONE',  ( 1.000000000000000000, 0.000000000000000000, 0.000000000000000000 ) ) ;
#161 = DIRECTION ( 'NONE',  ( -1.000000000000000000, -0.000000000000000000, -0.000000000000000000 ) ) ;
#162 = CC_DESIGN_PERSON_AND_ORGANIZATION_ASSIGNMENT ( #168, #39, ( #123 ) ) ;
#163 = PERSON ( 'UNSPECIFIED', 'UNSPECIFIED', 'UNSPECIFIED', ('UNSPECIFIED'), ('UNSPECIFIED'), ('UNSPECIFIED') ) ;
#164 = ORIENTED_EDGE ( 'NONE', *, *, #27, .F. ) ;
#165 = ORIENTED_EDGE ( 'NONE', *, *, #175, .T. ) ;
#166 =( GEOMETRIC_REPRESENTATION_CONTEXT ( 3 ) GLOBAL_UNCERTAINTY_ASSIGNED_CONTEXT ( ( #87 ) ) GLOBAL_UNIT_ASSIGNED_CONTEXT ( ( #26, #42, #127 ) ) REPRESENTATION_CONTEXT ( 'NONE', 'WORKASPACE' ) );
#167 = FACE_OUTER_BOUND ( 'NONE', #122, .T. ) ;
#168 = PERSON_AND_ORGANIZATION ( #163, #133 ) ;
#169 = ADVANCED_FACE ( 'NONE', ( #167 ), #116, .T. ) ;
#170 = CC_DESIGN_APPROVAL ( #37, ( #95 ) ) ;
#171 = APPROVAL_STATUS ( 'not_yet_approved' ) ;
#172 = PERSON_AND_ORGANIZATION ( #163, #133 ) ;
#173 = VECTOR ( 'NONE', #50, 1000.000000000000000 ) ;
#174 = DATE_TIME_ROLE ( 'classification_date' ) ;
#175 = EDGE_CURVE ( 'NONE', #147, #109, #72, .T. ) ;
ENDSEC;
END-ISO-10303-21;
