ISO-10303-21;
HEADER;
FILE_DESCRIPTION (( 'STEP AP203' ),
    '1' );
FILE_NAME ('Web Model 68404.STEP',
    '2017-01-31T19:57:34',
    ( '' ),
    ( '' ),
    'SwSTEP 2.0',
    'SolidWorks 2016',
    '' );
FILE_SCHEMA (( 'CONFIG_CONTROL_DESIGN' ));
ENDSEC;

DATA;
#1 = EDGE_LOOP ( 'NONE', ( #166, #11, #131, #113 ) ) ;
#2 = ORIENTED_EDGE ( 'NONE', *, *, #141, .T. ) ;
#3 = DIRECTION ( 'NONE',  ( 1.000000000000000000, 0.0000000000000000000, 0.0000000000000000000 ) ) ;
#4 = DIRECTION ( 'NONE',  ( 1.000000000000000000, 0.0000000000000000000, -0.0000000000000000000 ) ) ;
#5 = CC_DESIGN_DATE_AND_TIME_ASSIGNMENT ( #88, #123, ( #57 ) ) ;
#6 = EDGE_LOOP ( 'NONE', ( #154, #59, #137, #124 ) ) ;
#7 = PERSON_AND_ORGANIZATION_ROLE ( 'classification_officer' ) ;
#8 = ADVANCED_FACE ( 'NONE', ( #164 ), #41, .T. ) ;
#9 = APPROVAL_PERSON_ORGANIZATION ( #144, #27, #135 ) ;
#10 = FACE_OUTER_BOUND ( 'NONE', #20, .T. ) ;
#11 = ORIENTED_EDGE ( 'NONE', *, *, #35, .F. ) ;
#12 = COORDINATED_UNIVERSAL_TIME_OFFSET ( 5, 0, .BEHIND. ) ;
#13 = CIRCLE ( 'NONE', #28, 12.50000000000000000 ) ;
#14 = VERTEX_POINT ( 'NONE', #95 ) ;
#15 = PRODUCT_DEFINITION_FORMATION_WITH_SPECIFIED_SOURCE ( 'ANY', '', #49, .NOT_KNOWN. ) ;
#16 = EDGE_CURVE ( 'NONE', #150, #14, #13, .T. ) ;
#17 = AXIS2_PLACEMENT_3D ( 'NONE', #130, #118, #3 ) ;
#18 = CARTESIAN_POINT ( 'NONE',  ( 0.0000000000000000000, 0.0000000000000000000, 3.000000000000000000 ) ) ;
#19 = APPROVAL_PERSON_ORGANIZATION ( #122, #44, #70 ) ;
#20 = EDGE_LOOP ( 'NONE', ( #78, #32 ) ) ;
#21 = APPLICATION_PROTOCOL_DEFINITION ( 'international standard', 'config_control_design', 1994, #120 ) ;
#22 = AXIS2_PLACEMENT_3D ( 'NONE', #156, #168, #157 ) ;
#23 = EDGE_CURVE ( 'NONE', #175, #14, #84, .T. ) ;
#24 = LOCAL_TIME ( 14, 57, 34.00000000000000000, #93 ) ;
#25 = MANIFOLD_SOLID_BREP ( 'Extrude1', #55 ) ;
#26 = LOCAL_TIME ( 14, 57, 34.00000000000000000, #43 ) ;
#27 = APPROVAL ( #37, 'UNSPECIFIED' ) ;
#28 = AXIS2_PLACEMENT_3D ( 'NONE', #80, #132, #30 ) ;
#29 = PLANE ( 'NONE',  #105 ) ;
#30 = DIRECTION ( 'NONE',  ( 1.000000000000000000, 0.0000000000000000000, 0.0000000000000000000 ) ) ;
#31 = PLANE ( 'NONE',  #127 ) ;
#32 = ORIENTED_EDGE ( 'NONE', *, *, #56, .F. ) ;
#33 = CARTESIAN_POINT ( 'NONE',  ( -12.50000000000000000, 0.0000000000000000000, 3.000000000000000000 ) ) ;
#34 = DIRECTION ( 'NONE',  ( 0.0000000000000000000, 0.0000000000000000000, 1.000000000000000000 ) ) ;
#35 = EDGE_CURVE ( 'NONE', #60, #175, #91, .T. ) ;
#36 = DIRECTION ( 'NONE',  ( 1.000000000000000000, 0.0000000000000000000, 0.0000000000000000000 ) ) ;
#37 = APPROVAL_STATUS ( 'not_yet_approved' ) ;
#38 = AXIS2_PLACEMENT_3D ( 'NONE', #128, #52, #36 ) ;
#39 = PRODUCT_RELATED_PRODUCT_CATEGORY ( 'detail', '', ( #49 ) ) ;
#40 =( GEOMETRIC_REPRESENTATION_CONTEXT ( 3 ) GLOBAL_UNCERTAINTY_ASSIGNED_CONTEXT ( ( #99 ) ) GLOBAL_UNIT_ASSIGNED_CONTEXT ( ( #133, #121, #83 ) ) REPRESENTATION_CONTEXT ( 'NONE', 'WORKASPACE' ) );
#41 = CYLINDRICAL_SURFACE ( 'NONE', #138, 12.50000000000000000 ) ;
#42 = VECTOR ( 'NONE', #109, 1000.000000000000000 ) ;
#43 = COORDINATED_UNIVERSAL_TIME_OFFSET ( 5, 0, .BEHIND. ) ;
#44 = APPROVAL ( #111, 'UNSPECIFIED' ) ;
#45 = CALENDAR_DATE ( 2017, 31, 1 ) ;
#46 = CARTESIAN_POINT ( 'NONE',  ( 0.0000000000000000000, 0.0000000000000000000, 3.000000000000000000 ) ) ;
#47 = PRODUCT_DEFINITION ( 'UNKNOWN', '', #15, #151 ) ;
#48 = DIRECTION ( 'NONE',  ( -0.0000000000000000000, -0.0000000000000000000, -1.000000000000000000 ) ) ;
#49 = PRODUCT ( 'Web Model 68404', 'Web Model 68404', '', ( #146 ) ) ;
#50 = CIRCLE ( 'NONE', #97, 12.50000000000000000 ) ;
#51 = CARTESIAN_POINT ( 'NONE',  ( 0.0000000000000000000, 0.0000000000000000000, 0.0000000000000000000 ) ) ;
#52 = DIRECTION ( 'NONE',  ( 0.0000000000000000000, 0.0000000000000000000, 1.000000000000000000 ) ) ;
#53 = PERSON_AND_ORGANIZATION ( #65, #92 ) ;
#54 = APPLICATION_CONTEXT ( 'configuration controlled 3d designs of mechanical parts and assemblies' ) ;
#55 = CLOSED_SHELL ( 'NONE', ( #8, #173, #102, #136 ) ) ;
#56 = EDGE_CURVE ( 'NONE', #14, #150, #50, .T. ) ;
#57 = SECURITY_CLASSIFICATION ( '', '', #112 ) ;
#58 = DATE_AND_TIME ( #45, #24 ) ;
#59 = ORIENTED_EDGE ( 'NONE', *, *, #23, .T. ) ;
#60 = VERTEX_POINT ( 'NONE', #33 ) ;
#61 = PERSON_AND_ORGANIZATION ( #65, #92 ) ;
#62 = ADVANCED_BREP_SHAPE_REPRESENTATION ( 'Web Model 68404', ( #25, #38 ), #40 ) ;
#63 = CARTESIAN_POINT ( 'NONE',  ( 12.50000000000000000, 1.530808498934191500E-015, 3.000000000000000000 ) ) ;
#64 = PRODUCT_DEFINITION_SHAPE ( 'NONE', 'NONE',  #47 ) ;
#65 = PERSON ( 'UNSPECIFIED', 'UNSPECIFIED', 'UNSPECIFIED', ('UNSPECIFIED'), ('UNSPECIFIED'), ('UNSPECIFIED') ) ;
#66 = APPROVAL_STATUS ( 'not_yet_approved' ) ;
#67 = PERSON_AND_ORGANIZATION ( #65, #92 ) ;
#68 = CC_DESIGN_PERSON_AND_ORGANIZATION_ASSIGNMENT ( #53, #7, ( #57 ) ) ;
#69 = APPROVAL_ROLE ( '' ) ;
#70 = APPROVAL_ROLE ( '' ) ;
#71 = CC_DESIGN_PERSON_AND_ORGANIZATION_ASSIGNMENT ( #67, #100, ( #15 ) ) ;
#72 = CALENDAR_DATE ( 2017, 31, 1 ) ;
#73 = PERSON_AND_ORGANIZATION ( #65, #92 ) ;
#74 = VECTOR ( 'NONE', #142, 1000.000000000000000 ) ;
#75 = DIRECTION ( 'NONE',  ( 1.000000000000000000, 0.0000000000000000000, -0.0000000000000000000 ) ) ;
#76 = APPROVAL_DATE_TIME ( #114, #27 ) ;
#77 = DIRECTION ( 'NONE',  ( -1.000000000000000000, 0.0000000000000000000, 0.0000000000000000000 ) ) ;
#78 = ORIENTED_EDGE ( 'NONE', *, *, #16, .F. ) ;
#79 = CALENDAR_DATE ( 2017, 31, 1 ) ;
#80 = CARTESIAN_POINT ( 'NONE',  ( 0.0000000000000000000, 0.0000000000000000000, 0.0000000000000000000 ) ) ;
#81 = PERSON_AND_ORGANIZATION_ROLE ( 'design_owner' ) ;
#82 = PERSON_AND_ORGANIZATION_ROLE ( 'creator' ) ;
#83 =( NAMED_UNIT ( * ) SI_UNIT ( $, .STERADIAN. ) SOLID_ANGLE_UNIT ( ) );
#84 = LINE ( 'NONE', #63, #74 ) ;
#85 = AXIS2_PLACEMENT_3D ( 'NONE', #46, #48, #77 ) ;
#86 = APPROVAL_PERSON_ORGANIZATION ( #125, #90, #69 ) ;
#87 = LINE ( 'NONE', #140, #42 ) ;
#88 = DATE_AND_TIME ( #153, #110 ) ;
#89 = CIRCLE ( 'NONE', #22, 12.50000000000000000 ) ;
#90 = APPROVAL ( #66, 'UNSPECIFIED' ) ;
#91 = CIRCLE ( 'NONE', #17, 12.50000000000000000 ) ;
#92 = ORGANIZATION ( 'UNSPECIFIED', 'UNSPECIFIED', '' ) ;
#93 = COORDINATED_UNIVERSAL_TIME_OFFSET ( 5, 0, .BEHIND. ) ;
#94 = CARTESIAN_POINT ( 'NONE',  ( 0.0000000000000000000, 0.0000000000000000000, 3.000000000000000000 ) ) ;
#95 = CARTESIAN_POINT ( 'NONE',  ( 12.50000000000000000, 1.530808498934191500E-015, 0.0000000000000000000 ) ) ;
#96 = CC_DESIGN_APPROVAL ( #44, ( #15 ) ) ;
#97 = AXIS2_PLACEMENT_3D ( 'NONE', #51, #34, #167 ) ;
#98 = CALENDAR_DATE ( 2017, 31, 1 ) ;
#99 = UNCERTAINTY_MEASURE_WITH_UNIT (LENGTH_MEASURE( 1.000000000000000100E-005 ), #133, 'distance_accuracy_value', 'NONE');
#100 = PERSON_AND_ORGANIZATION_ROLE ( 'design_supplier' ) ;
#101 = CC_DESIGN_APPROVAL ( #90, ( #47 ) ) ;
#102 = ADVANCED_FACE ( 'NONE', ( #152 ), #29, .T. ) ;
#103 = EDGE_LOOP ( 'NONE', ( #108, #2 ) ) ;
#104 = PERSON_AND_ORGANIZATION ( #65, #92 ) ;
#105 = AXIS2_PLACEMENT_3D ( 'NONE', #18, #106, #4 ) ;
#106 = DIRECTION ( 'NONE',  ( 0.0000000000000000000, 0.0000000000000000000, 1.000000000000000000 ) ) ;
#107 = CC_DESIGN_PERSON_AND_ORGANIZATION_ASSIGNMENT ( #73, #82, ( #47 ) ) ;
#108 = ORIENTED_EDGE ( 'NONE', *, *, #35, .T. ) ;
#109 = DIRECTION ( 'NONE',  ( -0.0000000000000000000, -0.0000000000000000000, -1.000000000000000000 ) ) ;
#110 = LOCAL_TIME ( 14, 57, 34.00000000000000000, #12 ) ;
#111 = APPROVAL_STATUS ( 'not_yet_approved' ) ;
#112 = SECURITY_CLASSIFICATION_LEVEL ( 'unclassified' ) ;
#113 = ORIENTED_EDGE ( 'NONE', *, *, #16, .T. ) ;
#114 = DATE_AND_TIME ( #72, #26 ) ;
#115 = COORDINATED_UNIVERSAL_TIME_OFFSET ( 5, 0, .BEHIND. ) ;
#116 = EDGE_CURVE ( 'NONE', #60, #150, #87, .T. ) ;
#117 = FACE_OUTER_BOUND ( 'NONE', #1, .T. ) ;
#118 = DIRECTION ( 'NONE',  ( 0.0000000000000000000, 0.0000000000000000000, 1.000000000000000000 ) ) ;
#119 = CARTESIAN_POINT ( 'NONE',  ( 0.0000000000000000000, 0.0000000000000000000, 0.0000000000000000000 ) ) ;
#120 = APPLICATION_CONTEXT ( 'configuration controlled 3d designs of mechanical parts and assemblies' ) ;
#121 =( NAMED_UNIT ( * ) PLANE_ANGLE_UNIT ( ) SI_UNIT ( $, .RADIAN. ) );
#122 = PERSON_AND_ORGANIZATION ( #65, #92 ) ;
#123 = DATE_TIME_ROLE ( 'classification_date' ) ;
#124 = ORIENTED_EDGE ( 'NONE', *, *, #116, .F. ) ;
#125 = PERSON_AND_ORGANIZATION ( #65, #92 ) ;
#126 = APPROVAL_DATE_TIME ( #149, #90 ) ;
#127 = AXIS2_PLACEMENT_3D ( 'NONE', #119, #143, #75 ) ;
#128 = CARTESIAN_POINT ( 'NONE',  ( 0.0000000000000000000, 0.0000000000000000000, 0.0000000000000000000 ) ) ;
#129 = CC_DESIGN_PERSON_AND_ORGANIZATION_ASSIGNMENT ( #61, #81, ( #49 ) ) ;
#130 = CARTESIAN_POINT ( 'NONE',  ( 0.0000000000000000000, 0.0000000000000000000, 3.000000000000000000 ) ) ;
#131 = ORIENTED_EDGE ( 'NONE', *, *, #116, .T. ) ;
#132 = DIRECTION ( 'NONE',  ( 0.0000000000000000000, 0.0000000000000000000, 1.000000000000000000 ) ) ;
#133 =( LENGTH_UNIT ( ) NAMED_UNIT ( * ) SI_UNIT ( .MILLI., .METRE. ) );
#134 = CARTESIAN_POINT ( 'NONE',  ( 12.50000000000000000, 1.530808498934191500E-015, 3.000000000000000000 ) ) ;
#135 = APPROVAL_ROLE ( '' ) ;
#136 = ADVANCED_FACE ( 'NONE', ( #10 ), #31, .F. ) ;
#137 = ORIENTED_EDGE ( 'NONE', *, *, #56, .T. ) ;
#138 = AXIS2_PLACEMENT_3D ( 'NONE', #94, #169, #158 ) ;
#139 = LOCAL_TIME ( 14, 57, 34.00000000000000000, #174 ) ;
#140 = CARTESIAN_POINT ( 'NONE',  ( -12.50000000000000000, 0.0000000000000000000, 3.000000000000000000 ) ) ;
#141 = EDGE_CURVE ( 'NONE', #175, #60, #89, .T. ) ;
#142 = DIRECTION ( 'NONE',  ( -0.0000000000000000000, -0.0000000000000000000, -1.000000000000000000 ) ) ;
#143 = DIRECTION ( 'NONE',  ( 0.0000000000000000000, 0.0000000000000000000, 1.000000000000000000 ) ) ;
#144 = PERSON_AND_ORGANIZATION ( #65, #92 ) ;
#145 = APPLICATION_PROTOCOL_DEFINITION ( 'international standard', 'config_control_design', 1994, #54 ) ;
#146 = MECHANICAL_CONTEXT ( 'NONE', #120, 'mechanical' ) ;
#147 = LOCAL_TIME ( 14, 57, 34.00000000000000000, #115 ) ;
#148 = CC_DESIGN_DATE_AND_TIME_ASSIGNMENT ( #163, #171, ( #47 ) ) ;
#149 = DATE_AND_TIME ( #79, #147 ) ;
#150 = VERTEX_POINT ( 'NONE', #155 ) ;
#151 = DESIGN_CONTEXT ( 'detailed design', #54, 'design' ) ;
#152 = FACE_OUTER_BOUND ( 'NONE', #103, .T. ) ;
#153 = CALENDAR_DATE ( 2017, 31, 1 ) ;
#154 = ORIENTED_EDGE ( 'NONE', *, *, #141, .F. ) ;
#155 = CARTESIAN_POINT ( 'NONE',  ( -12.50000000000000000, 0.0000000000000000000, 0.0000000000000000000 ) ) ;
#156 = CARTESIAN_POINT ( 'NONE',  ( 0.0000000000000000000, 0.0000000000000000000, 3.000000000000000000 ) ) ;
#157 = DIRECTION ( 'NONE',  ( 1.000000000000000000, 0.0000000000000000000, 0.0000000000000000000 ) ) ;
#158 = DIRECTION ( 'NONE',  ( -1.000000000000000000, 0.0000000000000000000, 0.0000000000000000000 ) ) ;
#159 = CC_DESIGN_APPROVAL ( #27, ( #57 ) ) ;
#160 = APPROVAL_DATE_TIME ( #58, #44 ) ;
#161 = CC_DESIGN_PERSON_AND_ORGANIZATION_ASSIGNMENT ( #104, #172, ( #15 ) ) ;
#162 = CYLINDRICAL_SURFACE ( 'NONE', #85, 12.50000000000000000 ) ;
#163 = DATE_AND_TIME ( #98, #139 ) ;
#164 = FACE_OUTER_BOUND ( 'NONE', #6, .T. ) ;
#165 = CC_DESIGN_SECURITY_CLASSIFICATION ( #57, ( #15 ) ) ;
#166 = ORIENTED_EDGE ( 'NONE', *, *, #23, .F. ) ;
#167 = DIRECTION ( 'NONE',  ( 1.000000000000000000, 0.0000000000000000000, 0.0000000000000000000 ) ) ;
#168 = DIRECTION ( 'NONE',  ( 0.0000000000000000000, 0.0000000000000000000, 1.000000000000000000 ) ) ;
#169 = DIRECTION ( 'NONE',  ( -0.0000000000000000000, -0.0000000000000000000, -1.000000000000000000 ) ) ;
#170 = SHAPE_DEFINITION_REPRESENTATION ( #64, #62 ) ;
#171 = DATE_TIME_ROLE ( 'creation_date' ) ;
#172 = PERSON_AND_ORGANIZATION_ROLE ( 'creator' ) ;
#173 = ADVANCED_FACE ( 'NONE', ( #117 ), #162, .T. ) ;
#174 = COORDINATED_UNIVERSAL_TIME_OFFSET ( 5, 0, .BEHIND. ) ;
#175 = VERTEX_POINT ( 'NONE', #134 ) ;
ENDSEC;
END-ISO-10303-21;
