ISO-10303-21;
HEADER;
FILE_DESCRIPTION (( 'STEP AP203' ),
    '1' );
FILE_NAME ('Web Model 18947_18950.step',
    '2021-07-12T18:31:30',
    ( '' ),
    ( '' ),
    'SwSTEP 2.0',
    'SolidWorks 2018',
    '' );
FILE_SCHEMA (( 'CONFIG_CONTROL_DESIGN' ));
ENDSEC;

DATA;
#1 = DESIGN_CONTEXT ( 'detailed design', #62, 'design' ) ;
#2 = CC_DESIGN_APPROVAL ( #105, ( #141 ) ) ;
#3 = CIRCLE ( 'NONE', #121, 37.50000000000000711 ) ;
#4 = COORDINATED_UNIVERSAL_TIME_OFFSET ( 5, 0, .BEHIND. ) ;
#5 = ORIENTED_EDGE ( 'NONE', *, *, #14, .F. ) ;
#6 = CC_DESIGN_PERSON_AND_ORGANIZATION_ASSIGNMENT ( #126, #165, ( #149 ) ) ;
#7 = DATE_AND_TIME ( #90, #117 ) ;
#8 = EDGE_CURVE ( 'NONE', #70, #115, #3, .T. ) ;
#9 = ORIENTED_EDGE ( 'NONE', *, *, #81, .F. ) ;
#10 = DIRECTION ( 'NONE',  ( 0.000000000000000000, 0.000000000000000000, 1.000000000000000000 ) ) ;
#11 = CARTESIAN_POINT ( 'NONE',  ( 0.000000000000000000, 0.000000000000000000, 2.000000000000000000 ) ) ;
#12 = PERSON_AND_ORGANIZATION ( #108, #162 ) ;
#13 = DIRECTION ( 'NONE',  ( -0.000000000000000000, -0.000000000000000000, -1.000000000000000000 ) ) ;
#14 = EDGE_CURVE ( 'NONE', #17, #99, #35, .T. ) ;
#15 =( GEOMETRIC_REPRESENTATION_CONTEXT ( 3 ) GLOBAL_UNCERTAINTY_ASSIGNED_CONTEXT ( ( #41 ) ) GLOBAL_UNIT_ASSIGNED_CONTEXT ( ( #114, #113, #46 ) ) REPRESENTATION_CONTEXT ( 'NONE', 'WORKASPACE' ) );
#16 = PERSON_AND_ORGANIZATION ( #108, #162 ) ;
#17 = VERTEX_POINT ( 'NONE', #71 ) ;
#18 = EDGE_CURVE ( 'NONE', #115, #99, #136, .T. ) ;
#19 = ORIENTED_EDGE ( 'NONE', *, *, #81, .T. ) ;
#20 = CC_DESIGN_APPROVAL ( #25, ( #149 ) ) ;
#21 = ADVANCED_FACE ( 'NONE', ( #174 ), #76, .T. ) ;
#22 = APPROVAL_DATE_TIME ( #124, #105 ) ;
#23 = EDGE_LOOP ( 'NONE', ( #34, #169, #155, #40 ) ) ;
#24 = AXIS2_PLACEMENT_3D ( 'NONE', #143, #130, #77 ) ;
#25 = APPROVAL ( #65, 'UNSPECIFIED' ) ;
#26 = CARTESIAN_POINT ( 'NONE',  ( 0.000000000000000000, 0.000000000000000000, 2.000000000000000000 ) ) ;
#27 = FACE_OUTER_BOUND ( 'NONE', #107, .T. ) ;
#28 = DIRECTION ( 'NONE',  ( 1.000000000000000000, 0.000000000000000000, 0.000000000000000000 ) ) ;
#29 = CARTESIAN_POINT ( 'NONE',  ( 37.50000000000000711, 4.592425496802575156E-15, 0.000000000000000000 ) ) ;
#30 = PRODUCT ( 'Web Model 18947_18950', 'Web Model 18947_18950', '', ( #128 ) ) ;
#31 = CIRCLE ( 'NONE', #33, 37.50000000000000711 ) ;
#32 = LOCAL_TIME ( 14, 31, 30.00000000000000000, #4 ) ;
#33 = AXIS2_PLACEMENT_3D ( 'NONE', #158, #55, #28 ) ;
#34 = ORIENTED_EDGE ( 'NONE', *, *, #18, .F. ) ;
#35 = CIRCLE ( 'NONE', #140, 37.50000000000000711 ) ;
#36 = EDGE_CURVE ( 'NONE', #70, #17, #103, .T. ) ;
#37 = COORDINATED_UNIVERSAL_TIME_OFFSET ( 5, 0, .BEHIND. ) ;
#38 = DIRECTION ( 'NONE',  ( 1.000000000000000000, 0.000000000000000000, 0.000000000000000000 ) ) ;
#39 = CC_DESIGN_PERSON_AND_ORGANIZATION_ASSIGNMENT ( #122, #72, ( #159 ) ) ;
#40 = ORIENTED_EDGE ( 'NONE', *, *, #14, .T. ) ;
#41 = UNCERTAINTY_MEASURE_WITH_UNIT (LENGTH_MEASURE( 1.000000000000000082E-05 ), #114, 'distance_accuracy_value', 'NONE');
#42 = APPLICATION_PROTOCOL_DEFINITION ( 'international standard', 'config_control_design', 1994, #110 ) ;
#43 = CARTESIAN_POINT ( 'NONE',  ( -37.50000000000000711, 0.000000000000000000, 2.000000000000000000 ) ) ;
#44 = APPROVAL_PERSON_ORGANIZATION ( #59, #25, #167 ) ;
#45 = DIRECTION ( 'NONE',  ( -0.000000000000000000, -0.000000000000000000, -1.000000000000000000 ) ) ;
#46 =( NAMED_UNIT ( * ) SI_UNIT ( $, .STERADIAN. ) SOLID_ANGLE_UNIT ( ) );
#47 = DATE_AND_TIME ( #49, #137 ) ;
#48 = CC_DESIGN_DATE_AND_TIME_ASSIGNMENT ( #104, #144, ( #159 ) ) ;
#49 = CALENDAR_DATE ( 2021, 12, 7 ) ;
#50 = ADVANCED_FACE ( 'NONE', ( #27 ), #100, .T. ) ;
#51 = ORIENTED_EDGE ( 'NONE', *, *, #36, .F. ) ;
#52 = PERSON_AND_ORGANIZATION_ROLE ( 'design_owner' ) ;
#53 = CARTESIAN_POINT ( 'NONE',  ( 0.000000000000000000, 0.000000000000000000, 0.000000000000000000 ) ) ;
#54 = COORDINATED_UNIVERSAL_TIME_OFFSET ( 5, 0, .BEHIND. ) ;
#55 = DIRECTION ( 'NONE',  ( 0.000000000000000000, 0.000000000000000000, 1.000000000000000000 ) ) ;
#56 = DIRECTION ( 'NONE',  ( 1.000000000000000000, 0.000000000000000000, 0.000000000000000000 ) ) ;
#57 = ORIENTED_EDGE ( 'NONE', *, *, #18, .T. ) ;
#58 = CLOSED_SHELL ( 'NONE', ( #50, #153, #21, #172 ) ) ;
#59 = PERSON_AND_ORGANIZATION ( #108, #162 ) ;
#60 = APPROVAL_DATE_TIME ( #47, #25 ) ;
#61 = APPROVAL ( #157, 'UNSPECIFIED' ) ;
#62 = APPLICATION_CONTEXT ( 'configuration controlled 3d designs of mechanical parts and assemblies' ) ;
#63 = DIRECTION ( 'NONE',  ( 0.000000000000000000, 0.000000000000000000, 1.000000000000000000 ) ) ;
#64 = CALENDAR_DATE ( 2021, 12, 7 ) ;
#65 = APPROVAL_STATUS ( 'not_yet_approved' ) ;
#66 = ORIENTED_EDGE ( 'NONE', *, *, #168, .F. ) ;
#67 = DIRECTION ( 'NONE',  ( 1.000000000000000000, 0.000000000000000000, 0.000000000000000000 ) ) ;
#68 = DATE_TIME_ROLE ( 'classification_date' ) ;
#69 = CC_DESIGN_PERSON_AND_ORGANIZATION_ASSIGNMENT ( #151, #52, ( #30 ) ) ;
#70 = VERTEX_POINT ( 'NONE', #96 ) ;
#71 = CARTESIAN_POINT ( 'NONE',  ( -37.50000000000000711, 0.000000000000000000, 0.000000000000000000 ) ) ;
#72 = PERSON_AND_ORGANIZATION_ROLE ( 'creator' ) ;
#73 = CARTESIAN_POINT ( 'NONE',  ( 37.50000000000000711, 4.592425496802575156E-15, 2.000000000000000000 ) ) ;
#74 = EDGE_LOOP ( 'NONE', ( #5, #9 ) ) ;
#75 = CARTESIAN_POINT ( 'NONE',  ( 0.000000000000000000, 0.000000000000000000, 2.000000000000000000 ) ) ;
#76 = PLANE ( 'NONE',  #24 ) ;
#77 = DIRECTION ( 'NONE',  ( 1.000000000000000000, 0.000000000000000000, -0.000000000000000000 ) ) ;
#78 = ORIENTED_EDGE ( 'NONE', *, *, #8, .T. ) ;
#79 = PERSON_AND_ORGANIZATION_ROLE ( 'creator' ) ;
#80 = VECTOR ( 'NONE', #95, 1000.000000000000000 ) ;
#81 = EDGE_CURVE ( 'NONE', #99, #17, #31, .T. ) ;
#82 = MANIFOLD_SOLID_BREP ( 'Boss-Extrude1', #58 ) ;
#83 = CC_DESIGN_PERSON_AND_ORGANIZATION_ASSIGNMENT ( #16, #163, ( #141 ) ) ;
#84 = APPROVAL_DATE_TIME ( #166, #61 ) ;
#85 = CARTESIAN_POINT ( 'NONE',  ( 37.50000000000000711, 4.592425496802575156E-15, 2.000000000000000000 ) ) ;
#86 = CARTESIAN_POINT ( 'NONE',  ( 0.000000000000000000, 0.000000000000000000, 2.000000000000000000 ) ) ;
#87 = AXIS2_PLACEMENT_3D ( 'NONE', #53, #63, #97 ) ;
#88 = ORIENTED_EDGE ( 'NONE', *, *, #168, .T. ) ;
#89 = DIRECTION ( 'NONE',  ( 0.000000000000000000, 0.000000000000000000, 1.000000000000000000 ) ) ;
#90 = CALENDAR_DATE ( 2021, 12, 7 ) ;
#91 = APPROVAL_STATUS ( 'not_yet_approved' ) ;
#92 = CC_DESIGN_PERSON_AND_ORGANIZATION_ASSIGNMENT ( #12, #79, ( #149 ) ) ;
#93 = FACE_OUTER_BOUND ( 'NONE', #74, .T. ) ;
#94 = COORDINATED_UNIVERSAL_TIME_OFFSET ( 5, 0, .BEHIND. ) ;
#95 = DIRECTION ( 'NONE',  ( -0.000000000000000000, -0.000000000000000000, -1.000000000000000000 ) ) ;
#96 = CARTESIAN_POINT ( 'NONE',  ( -37.50000000000000711, 0.000000000000000000, 2.000000000000000000 ) ) ;
#97 = DIRECTION ( 'NONE',  ( 1.000000000000000000, 0.000000000000000000, -0.000000000000000000 ) ) ;
#98 = APPLICATION_PROTOCOL_DEFINITION ( 'international standard', 'config_control_design', 1994, #62 ) ;
#99 = VERTEX_POINT ( 'NONE', #29 ) ;
#100 = CYLINDRICAL_SURFACE ( 'NONE', #127, 37.50000000000000711 ) ;
#101 = SECURITY_CLASSIFICATION_LEVEL ( 'unclassified' ) ;
#102 = APPROVAL_PERSON_ORGANIZATION ( #160, #105, #118 ) ;
#103 = LINE ( 'NONE', #43, #119 ) ;
#104 = DATE_AND_TIME ( #145, #148 ) ;
#105 = APPROVAL ( #91, 'UNSPECIFIED' ) ;
#106 = AXIS2_PLACEMENT_3D ( 'NONE', #11, #89, #56 ) ;
#107 = EDGE_LOOP ( 'NONE', ( #66, #57, #19, #51 ) ) ;
#108 = PERSON ( 'UNSPECIFIED', 'UNSPECIFIED', 'UNSPECIFIED', ('UNSPECIFIED'), ('UNSPECIFIED'), ('UNSPECIFIED') ) ;
#109 = APPROVAL_PERSON_ORGANIZATION ( #139, #61, #112 ) ;
#110 = APPLICATION_CONTEXT ( 'configuration controlled 3d designs of mechanical parts and assemblies' ) ;
#111 = PLANE ( 'NONE',  #87 ) ;
#112 = APPROVAL_ROLE ( '' ) ;
#113 =( NAMED_UNIT ( * ) PLANE_ANGLE_UNIT ( ) SI_UNIT ( $, .RADIAN. ) );
#114 =( LENGTH_UNIT ( ) NAMED_UNIT ( * ) SI_UNIT ( .MILLI., .METRE. ) );
#115 = VERTEX_POINT ( 'NONE', #73 ) ;
#116 = PRODUCT_DEFINITION_SHAPE ( 'NONE', 'NONE',  #159 ) ;
#117 = LOCAL_TIME ( 14, 31, 30.00000000000000000, #37 ) ;
#118 = APPROVAL_ROLE ( '' ) ;
#119 = VECTOR ( 'NONE', #45, 1000.000000000000000 ) ;
#120 = SHAPE_DEFINITION_REPRESENTATION ( #116, #152 ) ;
#121 = AXIS2_PLACEMENT_3D ( 'NONE', #86, #142, #156 ) ;
#122 = PERSON_AND_ORGANIZATION ( #108, #162 ) ;
#123 = CC_DESIGN_APPROVAL ( #61, ( #159 ) ) ;
#124 = DATE_AND_TIME ( #64, #164 ) ;
#125 = FACE_OUTER_BOUND ( 'NONE', #23, .T. ) ;
#126 = PERSON_AND_ORGANIZATION ( #108, #162 ) ;
#127 = AXIS2_PLACEMENT_3D ( 'NONE', #26, #175, #132 ) ;
#128 = MECHANICAL_CONTEXT ( 'NONE', #110, 'mechanical' ) ;
#129 = DIRECTION ( 'NONE',  ( -1.000000000000000000, 0.000000000000000000, 0.000000000000000000 ) ) ;
#130 = DIRECTION ( 'NONE',  ( 0.000000000000000000, 0.000000000000000000, 1.000000000000000000 ) ) ;
#131 = PRODUCT_RELATED_PRODUCT_CATEGORY ( 'detail', '', ( #30 ) ) ;
#132 = DIRECTION ( 'NONE',  ( -1.000000000000000000, 0.000000000000000000, 0.000000000000000000 ) ) ;
#133 = DIRECTION ( 'NONE',  ( 0.000000000000000000, 0.000000000000000000, 1.000000000000000000 ) ) ;
#134 = CALENDAR_DATE ( 2021, 12, 7 ) ;
#135 = CC_DESIGN_SECURITY_CLASSIFICATION ( #141, ( #149 ) ) ;
#136 = LINE ( 'NONE', #85, #80 ) ;
#137 = LOCAL_TIME ( 14, 31, 30.00000000000000000, #146 ) ;
#138 = AXIS2_PLACEMENT_3D ( 'NONE', #161, #133, #67 ) ;
#139 = PERSON_AND_ORGANIZATION ( #108, #162 ) ;
#140 = AXIS2_PLACEMENT_3D ( 'NONE', #173, #10, #38 ) ;
#141 = SECURITY_CLASSIFICATION ( '', '', #101 ) ;
#142 = DIRECTION ( 'NONE',  ( 0.000000000000000000, 0.000000000000000000, 1.000000000000000000 ) ) ;
#143 = CARTESIAN_POINT ( 'NONE',  ( 0.000000000000000000, 0.000000000000000000, 2.000000000000000000 ) ) ;
#144 = DATE_TIME_ROLE ( 'creation_date' ) ;
#145 = CALENDAR_DATE ( 2021, 12, 7 ) ;
#146 = COORDINATED_UNIVERSAL_TIME_OFFSET ( 5, 0, .BEHIND. ) ;
#147 = CIRCLE ( 'NONE', #106, 37.50000000000000711 ) ;
#148 = LOCAL_TIME ( 14, 31, 30.00000000000000000, #54 ) ;
#149 = PRODUCT_DEFINITION_FORMATION_WITH_SPECIFIED_SOURCE ( 'ANY', '', #30, .NOT_KNOWN. ) ;
#150 = CYLINDRICAL_SURFACE ( 'NONE', #154, 37.50000000000000711 ) ;
#151 = PERSON_AND_ORGANIZATION ( #108, #162 ) ;
#152 = ADVANCED_BREP_SHAPE_REPRESENTATION ( 'Web Model 18947_18950', ( #82, #138 ), #15 ) ;
#153 = ADVANCED_FACE ( 'NONE', ( #125 ), #150, .T. ) ;
#154 = AXIS2_PLACEMENT_3D ( 'NONE', #75, #13, #129 ) ;
#155 = ORIENTED_EDGE ( 'NONE', *, *, #36, .T. ) ;
#156 = DIRECTION ( 'NONE',  ( 1.000000000000000000, 0.000000000000000000, 0.000000000000000000 ) ) ;
#157 = APPROVAL_STATUS ( 'not_yet_approved' ) ;
#158 = CARTESIAN_POINT ( 'NONE',  ( 0.000000000000000000, 0.000000000000000000, 0.000000000000000000 ) ) ;
#159 = PRODUCT_DEFINITION ( 'UNKNOWN', '', #149, #1 ) ;
#160 = PERSON_AND_ORGANIZATION ( #108, #162 ) ;
#161 = CARTESIAN_POINT ( 'NONE',  ( 0.000000000000000000, 0.000000000000000000, 0.000000000000000000 ) ) ;
#162 = ORGANIZATION ( 'UNSPECIFIED', 'UNSPECIFIED', '' ) ;
#163 = PERSON_AND_ORGANIZATION_ROLE ( 'classification_officer' ) ;
#164 = LOCAL_TIME ( 14, 31, 30.00000000000000000, #94 ) ;
#165 = PERSON_AND_ORGANIZATION_ROLE ( 'design_supplier' ) ;
#166 = DATE_AND_TIME ( #134, #32 ) ;
#167 = APPROVAL_ROLE ( '' ) ;
#168 = EDGE_CURVE ( 'NONE', #115, #70, #147, .T. ) ;
#169 = ORIENTED_EDGE ( 'NONE', *, *, #8, .F. ) ;
#170 = EDGE_LOOP ( 'NONE', ( #78, #88 ) ) ;
#171 = CC_DESIGN_DATE_AND_TIME_ASSIGNMENT ( #7, #68, ( #141 ) ) ;
#172 = ADVANCED_FACE ( 'NONE', ( #93 ), #111, .F. ) ;
#173 = CARTESIAN_POINT ( 'NONE',  ( 0.000000000000000000, 0.000000000000000000, 0.000000000000000000 ) ) ;
#174 = FACE_OUTER_BOUND ( 'NONE', #170, .T. ) ;
#175 = DIRECTION ( 'NONE',  ( -0.000000000000000000, -0.000000000000000000, -1.000000000000000000 ) ) ;
ENDSEC;
END-ISO-10303-21;
