ISO-10303-21;
HEADER;
FILE_DESCRIPTION (( 'STEP AP203' ),
    '1' );
FILE_NAME ('step_45111.step',
    '2014-06-05T19:31:26',
    ( '' ),
    ( '' ),
    'SwSTEP 2.0',
    'SolidWorks 2014',
    '' );
FILE_SCHEMA (( 'CONFIG_CONTROL_DESIGN' ));
ENDSEC;

DATA;
#1 = PRODUCT_RELATED_PRODUCT_CATEGORY ( 'detail', '', ( #24 ) ) ;
#2 = CC_DESIGN_PERSON_AND_ORGANIZATION_ASSIGNMENT ( #218, #83, ( #163 ) ) ;
#3 = DESIGN_CONTEXT ( 'detailed design', #113, 'design' ) ;
#4 = PERSON_AND_ORGANIZATION ( #146, #214 ) ;
#5 = EDGE_LOOP ( 'NONE', ( #257, #180, #237 ) ) ;
#6 = CC_DESIGN_PERSON_AND_ORGANIZATION_ASSIGNMENT ( #220, #100, ( #58 ) ) ;
#7 = DIRECTION ( 'NONE',  ( 0.0000000000000000000, -1.000000000000000000, 0.0000000000000000000 ) ) ;
#8 = ORIENTED_EDGE ( 'NONE', *, *, #246, .T. ) ;
#9 = VECTOR ( 'NONE', #206, 1000.000000000000100 ) ;
#10 = DIRECTION ( 'NONE',  ( -0.0000000000000000000, -1.000000000000000000, -0.0000000000000000000 ) ) ;
#11 = ORIENTED_EDGE ( 'NONE', *, *, #88, .T. ) ;
#12 = APPROVAL_PERSON_ORGANIZATION ( #29, #66, #212 ) ;
#13 = DATE_AND_TIME ( #87, #34 ) ;
#14 = CARTESIAN_POINT ( 'NONE',  ( 12.50000000000000000, 12.50000000000000000, 12.50000000000000000 ) ) ;
#15 = CARTESIAN_POINT ( 'NONE',  ( 0.0000000000000000000, 12.50000000000000000, 12.50000000000000000 ) ) ;
#16 = CC_DESIGN_APPROVAL ( #66, ( #163 ) ) ;
#17 = CC_DESIGN_APPROVAL ( #56, ( #58 ) ) ;
#18 = VERTEX_POINT ( 'NONE', #23 ) ;
#19 = AXIS2_PLACEMENT_3D ( 'NONE', #243, #295, #140 ) ;
#20 = EDGE_CURVE ( 'NONE', #310, #192, #191, .T. ) ;
#21 = CARTESIAN_POINT ( 'NONE',  ( 12.50000000000000000, -6.628682924999585600E-016, 12.50000000000000000 ) ) ;
#22 = DIRECTION ( 'NONE',  ( 1.000000000000000000, -5.302946339999668400E-017, -0.0000000000000000000 ) ) ;
#23 = CARTESIAN_POINT ( 'NONE',  ( 0.0000000000000000000, 0.0000000000000000000, 12.50000000000000000 ) ) ;
#24 = PRODUCT ( 'step_45111', 'step_45111', '', ( #54 ) ) ;
#25 = CARTESIAN_POINT ( 'NONE',  ( 0.0000000000000000000, 0.0000000000000000000, 0.0000000000000000000 ) ) ;
#26 = PLANE ( 'NONE',  #234 ) ;
#27 = ADVANCED_FACE ( 'NONE', ( #50 ), #26, .F. ) ;
#28 = VECTOR ( 'NONE', #270, 1000.000000000000000 ) ;
#29 = PERSON_AND_ORGANIZATION ( #146, #214 ) ;
#30 = DIRECTION ( 'NONE',  ( 0.0000000000000000000, -0.0000000000000000000, -1.000000000000000000 ) ) ;
#31 = ORIENTED_EDGE ( 'NONE', *, *, #51, .F. ) ;
#32 = LINE ( 'NONE', #306, #28 ) ;
#33 = CARTESIAN_POINT ( 'NONE',  ( 0.0000000000000000000, 0.0000000000000000000, 12.50000000000000000 ) ) ;
#34 = LOCAL_TIME ( 12, 31, 26.00000000000000000, #308 ) ;
#35 = AXIS2_PLACEMENT_3D ( 'NONE', #122, #294, #319 ) ;
#36 = VECTOR ( 'NONE', #147, 1000.000000000000000 ) ;
#37 = CARTESIAN_POINT ( 'NONE',  ( 12.50000000000000000, 12.50000000000000000, 0.0000000000000000000 ) ) ;
#38 = DIRECTION ( 'NONE',  ( -0.7071067811865474600, -0.7071067811865474600, -0.0000000000000000000 ) ) ;
#39 = FACE_OUTER_BOUND ( 'NONE', #197, .T. ) ;
#40 = VERTEX_POINT ( 'NONE', #25 ) ;
#41 = AXIS2_PLACEMENT_3D ( 'NONE', #226, #198, #300 ) ;
#42 = LINE ( 'NONE', #160, #233 ) ;
#43 = DATE_TIME_ROLE ( 'classification_date' ) ;
#44 = LINE ( 'NONE', #210, #247 ) ;
#45 = ORIENTED_EDGE ( 'NONE', *, *, #246, .F. ) ;
#46 = VECTOR ( 'NONE', #63, 1000.000000000000000 ) ;
#47 = PERSON_AND_ORGANIZATION_ROLE ( 'design_owner' ) ;
#48 = DATE_AND_TIME ( #311, #94 ) ;
#49 = FACE_OUTER_BOUND ( 'NONE', #5, .T. ) ;
#50 = FACE_OUTER_BOUND ( 'NONE', #244, .T. ) ;
#51 = EDGE_CURVE ( 'NONE', #18, #201, #284, .T. ) ;
#52 = FACE_OUTER_BOUND ( 'NONE', #162, .T. ) ;
#53 = ORIENTED_EDGE ( 'NONE', *, *, #268, .T. ) ;
#54 = MECHANICAL_CONTEXT ( 'NONE', #67, 'mechanical' ) ;
#55 = MANIFOLD_SOLID_BREP ( 'Boss-Extrude1', #155 ) ;
#56 = APPROVAL ( #90, 'UNSPECIFIED' ) ;
#57 = VECTOR ( 'NONE', #112, 1000.000000000000000 ) ;
#58 = PRODUCT_DEFINITION ( 'UNKNOWN', '', #163, #3 ) ;
#59 = CARTESIAN_POINT ( 'NONE',  ( 12.50000000000000000, -6.628682924999585600E-016, 12.50000000000000000 ) ) ;
#60 = ADVANCED_FACE ( 'NONE', ( #95 ), #231, .F. ) ;
#61 = DATE_AND_TIME ( #72, #102 ) ;
#62 = EDGE_CURVE ( 'NONE', #258, #201, #42, .T. ) ;
#63 = DIRECTION ( 'NONE',  ( -0.0000000000000000000, -0.0000000000000000000, -1.000000000000000000 ) ) ;
#64 = COORDINATED_UNIVERSAL_TIME_OFFSET ( 7, 0, .BEHIND. ) ;
#65 = LINE ( 'NONE', #173, #98 ) ;
#66 = APPROVAL ( #101, 'UNSPECIFIED' ) ;
#67 = APPLICATION_CONTEXT ( 'configuration controlled 3d designs of mechanical parts and assemblies' ) ;
#68 = DIRECTION ( 'NONE',  ( 0.0000000000000000000, 0.0000000000000000000, 1.000000000000000000 ) ) ;
#69 = ORIENTED_EDGE ( 'NONE', *, *, #114, .T. ) ;
#70 = FACE_OUTER_BOUND ( 'NONE', #115, .T. ) ;
#71 = LINE ( 'NONE', #271, #254 ) ;
#72 = CALENDAR_DATE ( 2014, 5, 6 ) ;
#73 = FACE_OUTER_BOUND ( 'NONE', #290, .T. ) ;
#74 = EDGE_CURVE ( 'NONE', #192, #169, #32, .T. ) ;
#75 = APPROVAL_STATUS ( 'not_yet_approved' ) ;
#76 = CARTESIAN_POINT ( 'NONE',  ( 0.0000000000000000000, 12.50000000000000000, 0.0000000000000000000 ) ) ;
#77 = AXIS2_PLACEMENT_3D ( 'NONE', #137, #171, #131 ) ;
#78 = CARTESIAN_POINT ( 'NONE',  ( 0.0000000000000000000, 0.0000000000000000000, 0.0000000000000000000 ) ) ;
#79 = LINE ( 'NONE', #196, #159 ) ;
#80 = ORIENTED_EDGE ( 'NONE', *, *, #133, .T. ) ;
#81 = ADVANCED_FACE ( 'NONE', ( #52 ), #183, .F. ) ;
#82 = FACE_OUTER_BOUND ( 'NONE', #242, .T. ) ;
#83 = PERSON_AND_ORGANIZATION_ROLE ( 'creator' ) ;
#84 = SECURITY_CLASSIFICATION ( '', '', #89 ) ;
#85 = ORIENTED_EDGE ( 'NONE', *, *, #303, .F. ) ;
#86 = FACE_OUTER_BOUND ( 'NONE', #282, .T. ) ;
#87 = CALENDAR_DATE ( 2014, 5, 6 ) ;
#88 = EDGE_CURVE ( 'NONE', #92, #177, #71, .T. ) ;
#89 = SECURITY_CLASSIFICATION_LEVEL ( 'unclassified' ) ;
#90 = APPROVAL_STATUS ( 'not_yet_approved' ) ;
#91 = DIRECTION ( 'NONE',  ( 1.000000000000000000, 0.0000000000000000000, 0.0000000000000000000 ) ) ;
#92 = VERTEX_POINT ( 'NONE', #278 ) ;
#93 = APPROVAL_DATE_TIME ( #13, #66 ) ;
#94 = LOCAL_TIME ( 12, 31, 26.00000000000000000, #245 ) ;
#95 = FACE_OUTER_BOUND ( 'NONE', #305, .T. ) ;
#96 = AXIS2_PLACEMENT_3D ( 'NONE', #14, #170, #320 ) ;
#97 = DIRECTION ( 'NONE',  ( 1.000000000000000000, 0.0000000000000000000, -0.0000000000000000000 ) ) ;
#98 = VECTOR ( 'NONE', #38, 1000.000000000000100 ) ;
#99 = ADVANCED_FACE ( 'NONE', ( #70 ), #283, .F. ) ;
#100 = PERSON_AND_ORGANIZATION_ROLE ( 'creator' ) ;
#101 = APPROVAL_STATUS ( 'not_yet_approved' ) ;
#102 = LOCAL_TIME ( 12, 31, 26.00000000000000000, #175 ) ;
#103 = ORIENTED_EDGE ( 'NONE', *, *, #307, .F. ) ;
#104 = PLANE ( 'NONE',  #216 ) ;
#105 = VECTOR ( 'NONE', #321, 1000.000000000000000 ) ;
#106 = CLOSED_SHELL ( 'NONE', ( #273, #81, #99, #148, #292 ) ) ;
#107 = EDGE_CURVE ( 'NONE', #92, #211, #44, .T. ) ;
#108 = DIRECTION ( 'NONE',  ( 0.0000000000000000000, 0.0000000000000000000, 1.000000000000000000 ) ) ;
#109 = PERSON_AND_ORGANIZATION ( #146, #214 ) ;
#110 = ORIENTED_EDGE ( 'NONE', *, *, #74, .F. ) ;
#111 =( NAMED_UNIT ( * ) PLANE_ANGLE_UNIT ( ) SI_UNIT ( $, .RADIAN. ) );
#112 = DIRECTION ( 'NONE',  ( 1.000000000000000000, -5.302946339999668400E-017, -0.0000000000000000000 ) ) ;
#113 = APPLICATION_CONTEXT ( 'configuration controlled 3d designs of mechanical parts and assemblies' ) ;
#114 = EDGE_CURVE ( 'NONE', #18, #92, #174, .T. ) ;
#115 = EDGE_LOOP ( 'NONE', ( #80, #315, #45, #275 ) ) ;
#116 = DIRECTION ( 'NONE',  ( 0.7071067811865474600, 0.7071067811865474600, -0.0000000000000000000 ) ) ;
#117 = APPLICATION_PROTOCOL_DEFINITION ( 'international standard', 'config_control_design', 1994, #113 ) ;
#118 = ORIENTED_EDGE ( 'NONE', *, *, #62, .T. ) ;
#119 = VECTOR ( 'NONE', #221, 1000.000000000000000 ) ;
#120 = EDGE_LOOP ( 'NONE', ( #69, #11, #132 ) ) ;
#121 = CARTESIAN_POINT ( 'NONE',  ( 0.0000000000000000000, 12.50000000000000000, 0.0000000000000000000 ) ) ;
#122 = CARTESIAN_POINT ( 'NONE',  ( 0.0000000000000000000, 0.0000000000000000000, 12.50000000000000000 ) ) ;
#123 = PERSON_AND_ORGANIZATION_ROLE ( 'design_supplier' ) ;
#124 = EDGE_CURVE ( 'NONE', #177, #18, #262, .T. ) ;
#125 = ADVANCED_FACE ( 'NONE', ( #73 ), #261, .F. ) ;
#126 = ORIENTED_EDGE ( 'NONE', *, *, #143, .T. ) ;
#127 = ORIENTED_EDGE ( 'NONE', *, *, #124, .F. ) ;
#128 = DIRECTION ( 'NONE',  ( -0.7071067811865474600, -0.7071067811865474600, -0.0000000000000000000 ) ) ;
#129 = PLANE ( 'NONE',  #77 ) ;
#130 = ORIENTED_EDGE ( 'NONE', *, *, #20, .F. ) ;
#131 = DIRECTION ( 'NONE',  ( -1.000000000000000000, 0.0000000000000000000, 0.0000000000000000000 ) ) ;
#132 = ORIENTED_EDGE ( 'NONE', *, *, #124, .T. ) ;
#133 = EDGE_CURVE ( 'NONE', #260, #40, #65, .T. ) ;
#134 = DATE_AND_TIME ( #142, #205 ) ;
#135 = SHAPE_DEFINITION_REPRESENTATION ( #301, #194 ) ;
#136 = PERSON_AND_ORGANIZATION_ROLE ( 'classification_officer' ) ;
#137 = CARTESIAN_POINT ( 'NONE',  ( 0.0000000000000000000, 0.0000000000000000000, 0.0000000000000000000 ) ) ;
#138 = CARTESIAN_POINT ( 'NONE',  ( 0.0000000000000000000, 0.0000000000000000000, 0.0000000000000000000 ) ) ;
#139 = PERSON_AND_ORGANIZATION ( #146, #214 ) ;
#140 = DIRECTION ( 'NONE',  ( -1.000000000000000000, 0.0000000000000000000, 0.0000000000000000000 ) ) ;
#141 = CARTESIAN_POINT ( 'NONE',  ( 12.50000000000000000, 12.50000000000000000, 0.0000000000000000000 ) ) ;
#142 = CALENDAR_DATE ( 2014, 5, 6 ) ;
#143 = EDGE_CURVE ( 'NONE', #224, #260, #158, .T. ) ;
#144 = CARTESIAN_POINT ( 'NONE',  ( 12.50000000000000000, -6.628682924999585600E-016, 12.50000000000000000 ) ) ;
#145 = DIRECTION ( 'NONE',  ( 0.0000000000000000000, 0.0000000000000000000, 1.000000000000000000 ) ) ;
#146 = PERSON ( 'UNSPECIFIED', 'UNSPECIFIED', 'UNSPECIFIED', ('UNSPECIFIED'), ('UNSPECIFIED'), ('UNSPECIFIED') ) ;
#147 = DIRECTION ( 'NONE',  ( -0.0000000000000000000, -0.0000000000000000000, -1.000000000000000000 ) ) ;
#148 = ADVANCED_FACE ( 'NONE', ( #86 ), #199, .T. ) ;
#149 = DATE_TIME_ROLE ( 'creation_date' ) ;
#150 = PLANE ( 'NONE',  #19 ) ;
#151 = VECTOR ( 'NONE', #168, 1000.000000000000000 ) ;
#152 = ORIENTED_EDGE ( 'NONE', *, *, #266, .T. ) ;
#153 = EDGE_CURVE ( 'NONE', #211, #258, #298, .T. ) ;
#154 = LINE ( 'NONE', #186, #46 ) ;
#155 = CLOSED_SHELL ( 'NONE', ( #125, #27, #60, #195, #250 ) ) ;
#156 = LINE ( 'NONE', #161, #57 ) ;
#157 = CC_DESIGN_PERSON_AND_ORGANIZATION_ASSIGNMENT ( #109, #136, ( #84 ) ) ;
#158 = LINE ( 'NONE', #37, #188 ) ;
#159 = VECTOR ( 'NONE', #128, 1000.000000000000100 ) ;
#160 = CARTESIAN_POINT ( 'NONE',  ( 0.0000000000000000000, 0.0000000000000000000, 0.0000000000000000000 ) ) ;
#161 = CARTESIAN_POINT ( 'NONE',  ( 12.50000000000000000, -6.628682924999585600E-016, 0.0000000000000000000 ) ) ;
#162 = EDGE_LOOP ( 'NONE', ( #126, #103, #110, #313 ) ) ;
#163 = PRODUCT_DEFINITION_FORMATION_WITH_SPECIFIED_SOURCE ( 'ANY', '', #24, .NOT_KNOWN. ) ;
#164 = AXIS2_PLACEMENT_3D ( 'NONE', #279, #286, #288 ) ;
#165 = CARTESIAN_POINT ( 'NONE',  ( 12.50000000000000000, -6.628682924999585600E-016, 0.0000000000000000000 ) ) ;
#166 = LINE ( 'NONE', #316, #287 ) ;
#167 = APPROVAL_ROLE ( '' ) ;
#168 = DIRECTION ( 'NONE',  ( -0.0000000000000000000, -0.0000000000000000000, -1.000000000000000000 ) ) ;
#169 = VERTEX_POINT ( 'NONE', #213 ) ;
#170 = DIRECTION ( 'NONE',  ( -0.7071067811865475700, 0.7071067811865475700, 0.0000000000000000000 ) ) ;
#171 = DIRECTION ( 'NONE',  ( 0.0000000000000000000, 0.0000000000000000000, -1.000000000000000000 ) ) ;
#172 = CARTESIAN_POINT ( 'NONE',  ( 12.50000000000000000, 12.50000000000000000, 0.0000000000000000000 ) ) ;
#173 = CARTESIAN_POINT ( 'NONE',  ( 0.0000000000000000000, 0.0000000000000000000, 0.0000000000000000000 ) ) ;
#174 = LINE ( 'NONE', #274, #176 ) ;
#175 = COORDINATED_UNIVERSAL_TIME_OFFSET ( 7, 0, .BEHIND. ) ;
#176 = VECTOR ( 'NONE', #116, 1000.000000000000100 ) ;
#177 = VERTEX_POINT ( 'NONE', #256 ) ;
#178 = CARTESIAN_POINT ( 'NONE',  ( 0.0000000000000000000, 0.0000000000000000000, 12.50000000000000000 ) ) ;
#179 = ORIENTED_EDGE ( 'NONE', *, *, #268, .F. ) ;
#180 = ORIENTED_EDGE ( 'NONE', *, *, #62, .F. ) ;
#181 =( LENGTH_UNIT ( ) NAMED_UNIT ( * ) SI_UNIT ( .MILLI., .METRE. ) );
#182 = EDGE_CURVE ( 'NONE', #201, #211, #203, .T. ) ;
#183 = PLANE ( 'NONE',  #223 ) ;
#184 = ORIENTED_EDGE ( 'NONE', *, *, #51, .T. ) ;
#185 = ORIENTED_EDGE ( 'NONE', *, *, #20, .T. ) ;
#186 = CARTESIAN_POINT ( 'NONE',  ( 0.0000000000000000000, 12.50000000000000000, 12.50000000000000000 ) ) ;
#187 = CARTESIAN_POINT ( 'NONE',  ( 12.50000000000000000, 12.50000000000000000, 0.0000000000000000000 ) ) ;
#188 = VECTOR ( 'NONE', #193, 1000.000000000000000 ) ;
#189 = CC_DESIGN_PERSON_AND_ORGANIZATION_ASSIGNMENT ( #228, #47, ( #24 ) ) ;
#190 = CALENDAR_DATE ( 2014, 5, 6 ) ;
#191 = LINE ( 'NONE', #21, #259 ) ;
#192 = VERTEX_POINT ( 'NONE', #144 ) ;
#193 = DIRECTION ( 'NONE',  ( -0.0000000000000000000, 1.000000000000000000, -0.0000000000000000000 ) ) ;
#194 = ADVANCED_BREP_SHAPE_REPRESENTATION ( 'step_45111', ( #55, #314, #281 ), #236 ) ;
#195 = ADVANCED_FACE ( 'NONE', ( #219 ), #150, .F. ) ;
#196 = CARTESIAN_POINT ( 'NONE',  ( 0.0000000000000000000, 0.0000000000000000000, 12.50000000000000000 ) ) ;
#197 = EDGE_LOOP ( 'NONE', ( #235, #207, #209 ) ) ;
#198 = DIRECTION ( 'NONE',  ( 5.302946339999668400E-017, 1.000000000000000000, -0.0000000000000000000 ) ) ;
#199 = PLANE ( 'NONE',  #280 ) ;
#200 = CARTESIAN_POINT ( 'NONE',  ( 0.0000000000000000000, 0.0000000000000000000, 12.50000000000000000 ) ) ;
#201 = VERTEX_POINT ( 'NONE', #78 ) ;
#202 = ORIENTED_EDGE ( 'NONE', *, *, #107, .T. ) ;
#203 = LINE ( 'NONE', #187, #9 ) ;
#204 = CC_DESIGN_DATE_AND_TIME_ASSIGNMENT ( #289, #43, ( #84 ) ) ;
#205 = LOCAL_TIME ( 12, 31, 26.00000000000000000, #276 ) ;
#206 = DIRECTION ( 'NONE',  ( 0.7071067811865474600, 0.7071067811865474600, -0.0000000000000000000 ) ) ;
#207 = ORIENTED_EDGE ( 'NONE', *, *, #133, .F. ) ;
#208 = CC_DESIGN_SECURITY_CLASSIFICATION ( #84, ( #163 ) ) ;
#209 = ORIENTED_EDGE ( 'NONE', *, *, #143, .F. ) ;
#210 = CARTESIAN_POINT ( 'NONE',  ( 12.50000000000000000, 12.50000000000000000, 12.50000000000000000 ) ) ;
#211 = VERTEX_POINT ( 'NONE', #172 ) ;
#212 = APPROVAL_ROLE ( '' ) ;
#213 = CARTESIAN_POINT ( 'NONE',  ( 12.50000000000000000, 12.50000000000000000, 12.50000000000000000 ) ) ;
#214 = ORGANIZATION ( 'UNSPECIFIED', 'UNSPECIFIED', '' ) ;
#215 = CARTESIAN_POINT ( 'NONE',  ( 0.0000000000000000000, 0.0000000000000000000, 0.0000000000000000000 ) ) ;
#216 = AXIS2_PLACEMENT_3D ( 'NONE', #138, #108, #248 ) ;
#217 = ORIENTED_EDGE ( 'NONE', *, *, #229, .T. ) ;
#218 = PERSON_AND_ORGANIZATION ( #146, #214 ) ;
#219 = FACE_OUTER_BOUND ( 'NONE', #120, .T. ) ;
#220 = PERSON_AND_ORGANIZATION ( #146, #214 ) ;
#221 = DIRECTION ( 'NONE',  ( -1.000000000000000000, -0.0000000000000000000, -0.0000000000000000000 ) ) ;
#222 = APPROVAL_DATE_TIME ( #48, #312 ) ;
#223 = AXIS2_PLACEMENT_3D ( 'NONE', #309, #296, #68 ) ;
#224 = VERTEX_POINT ( 'NONE', #165 ) ;
#225 = DIRECTION ( 'NONE',  ( -0.0000000000000000000, -1.000000000000000000, -0.0000000000000000000 ) ) ;
#226 = CARTESIAN_POINT ( 'NONE',  ( 12.50000000000000000, -6.628682924999585600E-016, 12.50000000000000000 ) ) ;
#227 = CARTESIAN_POINT ( 'NONE',  ( 0.0000000000000000000, 0.0000000000000000000, 12.50000000000000000 ) ) ;
#228 = PERSON_AND_ORGANIZATION ( #146, #214 ) ;
#229 = EDGE_CURVE ( 'NONE', #310, #40, #232, .T. ) ;
#230 = PERSON_AND_ORGANIZATION ( #146, #214 ) ;
#231 = PLANE ( 'NONE',  #35 ) ;
#232 = LINE ( 'NONE', #227, #36 ) ;
#233 = VECTOR ( 'NONE', #225, 1000.000000000000000 ) ;
#234 = AXIS2_PLACEMENT_3D ( 'NONE', #15, #7, #30 ) ;
#235 = ORIENTED_EDGE ( 'NONE', *, *, #266, .F. ) ;
#236 =( GEOMETRIC_REPRESENTATION_CONTEXT ( 3 ) GLOBAL_UNCERTAINTY_ASSIGNED_CONTEXT ( ( #255 ) ) GLOBAL_UNIT_ASSIGNED_CONTEXT ( ( #181, #111, #240 ) ) REPRESENTATION_CONTEXT ( 'NONE', 'WORKASPACE' ) );
#237 = ORIENTED_EDGE ( 'NONE', *, *, #153, .F. ) ;
#238 = CC_DESIGN_DATE_AND_TIME_ASSIGNMENT ( #61, #149, ( #58 ) ) ;
#239 = ORIENTED_EDGE ( 'NONE', *, *, #74, .T. ) ;
#240 =( NAMED_UNIT ( * ) SI_UNIT ( $, .STERADIAN. ) SOLID_ANGLE_UNIT ( ) );
#241 = ORIENTED_EDGE ( 'NONE', *, *, #114, .F. ) ;
#242 = EDGE_LOOP ( 'NONE', ( #152, #85, #130, #217 ) ) ;
#243 = CARTESIAN_POINT ( 'NONE',  ( 0.0000000000000000000, 0.0000000000000000000, 12.50000000000000000 ) ) ;
#244 = EDGE_LOOP ( 'NONE', ( #277, #179, #304, #202 ) ) ;
#245 = COORDINATED_UNIVERSAL_TIME_OFFSET ( 7, 0, .BEHIND. ) ;
#246 = EDGE_CURVE ( 'NONE', #169, #310, #79, .T. ) ;
#247 = VECTOR ( 'NONE', #285, 1000.000000000000000 ) ;
#248 = DIRECTION ( 'NONE',  ( 1.000000000000000000, 0.0000000000000000000, -0.0000000000000000000 ) ) ;
#249 = ORIENTED_EDGE ( 'NONE', *, *, #107, .F. ) ;
#250 = ADVANCED_FACE ( 'NONE', ( #49 ), #129, .T. ) ;
#251 = CC_DESIGN_PERSON_AND_ORGANIZATION_ASSIGNMENT ( #139, #123, ( #163 ) ) ;
#252 = APPROVAL_PERSON_ORGANIZATION ( #230, #56, #167 ) ;
#253 = CARTESIAN_POINT ( 'NONE',  ( 0.0000000000000000000, 0.0000000000000000000, 12.50000000000000000 ) ) ;
#254 = VECTOR ( 'NONE', #269, 1000.000000000000000 ) ;
#255 = UNCERTAINTY_MEASURE_WITH_UNIT (LENGTH_MEASURE( 1.000000000000000100E-005 ), #181, 'distance_accuracy_value', 'NONE');
#256 = CARTESIAN_POINT ( 'NONE',  ( 0.0000000000000000000, 12.50000000000000000, 12.50000000000000000 ) ) ;
#257 = ORIENTED_EDGE ( 'NONE', *, *, #182, .F. ) ;
#258 = VERTEX_POINT ( 'NONE', #121 ) ;
#259 = VECTOR ( 'NONE', #22, 1000.000000000000000 ) ;
#260 = VERTEX_POINT ( 'NONE', #141 ) ;
#261 = PLANE ( 'NONE',  #96 ) ;
#262 = LINE ( 'NONE', #200, #291 ) ;
#263 = APPROVAL_DATE_TIME ( #134, #56 ) ;
#264 = ORIENTED_EDGE ( 'NONE', *, *, #182, .T. ) ;
#265 = APPROVAL_ROLE ( '' ) ;
#266 = EDGE_CURVE ( 'NONE', #40, #224, #156, .T. ) ;
#267 = DIRECTION ( 'NONE',  ( 0.0000000000000000000, 0.0000000000000000000, 1.000000000000000000 ) ) ;
#268 = EDGE_CURVE ( 'NONE', #177, #258, #154, .T. ) ;
#269 = DIRECTION ( 'NONE',  ( -1.000000000000000000, -0.0000000000000000000, -0.0000000000000000000 ) ) ;
#270 = DIRECTION ( 'NONE',  ( -0.0000000000000000000, 1.000000000000000000, -0.0000000000000000000 ) ) ;
#271 = CARTESIAN_POINT ( 'NONE',  ( 0.0000000000000000000, 12.50000000000000000, 12.50000000000000000 ) ) ;
#272 = CC_DESIGN_APPROVAL ( #312, ( #84 ) ) ;
#273 = ADVANCED_FACE ( 'NONE', ( #82 ), #299, .F. ) ;
#274 = CARTESIAN_POINT ( 'NONE',  ( 12.50000000000000000, 12.50000000000000000, 12.50000000000000000 ) ) ;
#275 = ORIENTED_EDGE ( 'NONE', *, *, #307, .T. ) ;
#276 = COORDINATED_UNIVERSAL_TIME_OFFSET ( 7, 0, .BEHIND. ) ;
#277 = ORIENTED_EDGE ( 'NONE', *, *, #153, .T. ) ;
#278 = CARTESIAN_POINT ( 'NONE',  ( 12.50000000000000000, 12.50000000000000000, 12.50000000000000000 ) ) ;
#279 = CARTESIAN_POINT ( 'NONE',  ( 0.0000000000000000000, 0.0000000000000000000, 12.50000000000000000 ) ) ;
#280 = AXIS2_PLACEMENT_3D ( 'NONE', #253, #145, #97 ) ;
#281 = AXIS2_PLACEMENT_3D ( 'NONE', #215, #267, #91 ) ;
#282 = EDGE_LOOP ( 'NONE', ( #185, #239, #8 ) ) ;
#283 = PLANE ( 'NONE',  #164 ) ;
#284 = LINE ( 'NONE', #33, #151 ) ;
#285 = DIRECTION ( 'NONE',  ( -0.0000000000000000000, -0.0000000000000000000, -1.000000000000000000 ) ) ;
#286 = DIRECTION ( 'NONE',  ( 0.7071067811865475700, -0.7071067811865475700, 0.0000000000000000000 ) ) ;
#287 = VECTOR ( 'NONE', #318, 1000.000000000000000 ) ;
#288 = DIRECTION ( 'NONE',  ( 0.7071067811865474600, 0.7071067811865474600, 0.0000000000000000000 ) ) ;
#289 = DATE_AND_TIME ( #190, #293 ) ;
#290 = EDGE_LOOP ( 'NONE', ( #264, #249, #241, #184 ) ) ;
#291 = VECTOR ( 'NONE', #10, 1000.000000000000000 ) ;
#292 = ADVANCED_FACE ( 'NONE', ( #39 ), #104, .F. ) ;
#293 = LOCAL_TIME ( 12, 31, 26.00000000000000000, #64 ) ;
#294 = DIRECTION ( 'NONE',  ( 1.000000000000000000, 0.0000000000000000000, 0.0000000000000000000 ) ) ;
#295 = DIRECTION ( 'NONE',  ( 0.0000000000000000000, 0.0000000000000000000, -1.000000000000000000 ) ) ;
#296 = DIRECTION ( 'NONE',  ( -1.000000000000000000, 0.0000000000000000000, 0.0000000000000000000 ) ) ;
#297 = APPROVAL_PERSON_ORGANIZATION ( #4, #312, #265 ) ;
#298 = LINE ( 'NONE', #76, #119 ) ;
#299 = PLANE ( 'NONE',  #41 ) ;
#300 = DIRECTION ( 'NONE',  ( -1.000000000000000000, 5.302946339999668400E-017, 0.0000000000000000000 ) ) ;
#301 = PRODUCT_DEFINITION_SHAPE ( 'NONE', 'NONE',  #58 ) ;
#302 = LINE ( 'NONE', #59, #105 ) ;
#303 = EDGE_CURVE ( 'NONE', #192, #224, #302, .T. ) ;
#304 = ORIENTED_EDGE ( 'NONE', *, *, #88, .F. ) ;
#305 = EDGE_LOOP ( 'NONE', ( #118, #31, #127, #53 ) ) ;
#306 = CARTESIAN_POINT ( 'NONE',  ( 12.50000000000000000, 12.50000000000000000, 12.50000000000000000 ) ) ;
#307 = EDGE_CURVE ( 'NONE', #169, #260, #166, .T. ) ;
#308 = COORDINATED_UNIVERSAL_TIME_OFFSET ( 7, 0, .BEHIND. ) ;
#309 = CARTESIAN_POINT ( 'NONE',  ( 12.50000000000000000, 12.50000000000000000, 12.50000000000000000 ) ) ;
#310 = VERTEX_POINT ( 'NONE', #178 ) ;
#311 = CALENDAR_DATE ( 2014, 5, 6 ) ;
#312 = APPROVAL ( #75, 'UNSPECIFIED' ) ;
#313 = ORIENTED_EDGE ( 'NONE', *, *, #303, .T. ) ;
#314 = MANIFOLD_SOLID_BREP ( 'Boss-Extrude2', #106 ) ;
#315 = ORIENTED_EDGE ( 'NONE', *, *, #229, .F. ) ;
#316 = CARTESIAN_POINT ( 'NONE',  ( 12.50000000000000000, 12.50000000000000000, 12.50000000000000000 ) ) ;
#317 = APPLICATION_PROTOCOL_DEFINITION ( 'international standard', 'config_control_design', 1994, #67 ) ;
#318 = DIRECTION ( 'NONE',  ( -0.0000000000000000000, -0.0000000000000000000, -1.000000000000000000 ) ) ;
#319 = DIRECTION ( 'NONE',  ( 0.0000000000000000000, 0.0000000000000000000, -1.000000000000000000 ) ) ;
#320 = DIRECTION ( 'NONE',  ( -0.7071067811865474600, -0.7071067811865474600, 0.0000000000000000000 ) ) ;
#321 = DIRECTION ( 'NONE',  ( -0.0000000000000000000, -0.0000000000000000000, -1.000000000000000000 ) ) ;
ENDSEC;
END-ISO-10303-21;
