ISO-10303-21;
HEADER;
FILE_DESCRIPTION (( 'STEP AP203' ),
    '1' );
FILE_NAME ('Web Model 48858_63216.step',
    '2017-03-01T20:57:11',
    ( '' ),
    ( '' ),
    'SwSTEP 2.0',
    'SolidWorks 2016',
    '' );
FILE_SCHEMA (( 'CONFIG_CONTROL_DESIGN' ));
ENDSEC;

DATA;
#1 = MECHANICAL_CONTEXT ( 'NONE', #133, 'mechanical' ) ;
#2 = PRODUCT ( 'Web Model 48858_63216', 'Web Model 48858_63216', '', ( #1 ) ) ;
#3 = LOCAL_TIME ( 15, 57, 11.00000000000000000, #14 ) ;
#4 = DIRECTION ( 'NONE',  ( -0.0000000000000000000, -0.0000000000000000000, -1.000000000000000000 ) ) ;
#5 = APPROVAL ( #56, 'UNSPECIFIED' ) ;
#6 = DIRECTION ( 'NONE',  ( 1.000000000000000000, 0.0000000000000000000, 0.0000000000000000000 ) ) ;
#7 = EDGE_CURVE ( 'NONE', #27, #57, #173, .T. ) ;
#8 = PERSON_AND_ORGANIZATION ( #12, #131 ) ;
#9 = DIRECTION ( 'NONE',  ( 0.0000000000000000000, 0.0000000000000000000, 1.000000000000000000 ) ) ;
#10 = CC_DESIGN_APPROVAL ( #5, ( #158 ) ) ;
#11 = COORDINATED_UNIVERSAL_TIME_OFFSET ( 5, 0, .BEHIND. ) ;
#12 = PERSON ( 'UNSPECIFIED', 'UNSPECIFIED', 'UNSPECIFIED', ('UNSPECIFIED'), ('UNSPECIFIED'), ('UNSPECIFIED') ) ;
#13 = DATE_TIME_ROLE ( 'classification_date' ) ;
#14 = COORDINATED_UNIVERSAL_TIME_OFFSET ( 5, 0, .BEHIND. ) ;
#15 = DIRECTION ( 'NONE',  ( 1.000000000000000000, 0.0000000000000000000, 0.0000000000000000000 ) ) ;
#16 = CARTESIAN_POINT ( 'NONE',  ( 0.0000000000000000000, 0.0000000000000000000, 0.0000000000000000000 ) ) ;
#17 = CARTESIAN_POINT ( 'NONE',  ( 0.0000000000000000000, 0.0000000000000000000, 0.0000000000000000000 ) ) ;
#18 = ORIENTED_EDGE ( 'NONE', *, *, #84, .F. ) ;
#19 = CC_DESIGN_PERSON_AND_ORGANIZATION_ASSIGNMENT ( #132, #146, ( #158 ) ) ;
#20 = DIRECTION ( 'NONE',  ( 1.000000000000000000, 0.0000000000000000000, 0.0000000000000000000 ) ) ;
#21 = AXIS2_PLACEMENT_3D ( 'NONE', #16, #125, #6 ) ;
#22 = EDGE_LOOP ( 'NONE', ( #96, #113 ) ) ;
#23 = ORIENTED_EDGE ( 'NONE', *, *, #84, .T. ) ;
#24 =( NAMED_UNIT ( * ) PLANE_ANGLE_UNIT ( ) SI_UNIT ( $, .RADIAN. ) );
#25 = PERSON_AND_ORGANIZATION ( #12, #131 ) ;
#26 = APPROVAL_ROLE ( '' ) ;
#27 = VERTEX_POINT ( 'NONE', #116 ) ;
#28 = VECTOR ( 'NONE', #99, 1000.000000000000000 ) ;
#29 = CC_DESIGN_DATE_AND_TIME_ASSIGNMENT ( #123, #165, ( #158 ) ) ;
#30 = AXIS2_PLACEMENT_3D ( 'NONE', #155, #51, #20 ) ;
#31 = AXIS2_PLACEMENT_3D ( 'NONE', #87, #72, #35 ) ;
#32 = EDGE_CURVE ( 'NONE', #27, #136, #130, .T. ) ;
#33 = CYLINDRICAL_SURFACE ( 'NONE', #50, 63.50000000000000000 ) ;
#34 = CALENDAR_DATE ( 2017, 1, 3 ) ;
#35 = DIRECTION ( 'NONE',  ( 1.000000000000000000, 0.0000000000000000000, -0.0000000000000000000 ) ) ;
#36 = PRODUCT_RELATED_PRODUCT_CATEGORY ( 'detail', '', ( #2 ) ) ;
#37 = APPLICATION_CONTEXT ( 'configuration controlled 3d designs of mechanical parts and assemblies' ) ;
#38 = DATE_AND_TIME ( #147, #3 ) ;
#39 = ADVANCED_FACE ( 'NONE', ( #140 ), #68, .F. ) ;
#40 = PRODUCT_DEFINITION_FORMATION_WITH_SPECIFIED_SOURCE ( 'ANY', '', #2, .NOT_KNOWN. ) ;
#41 = ADVANCED_FACE ( 'NONE', ( #153 ), #33, .T. ) ;
#42 = PLANE ( 'NONE',  #62 ) ;
#43 = DATE_AND_TIME ( #175, #126 ) ;
#44 = CARTESIAN_POINT ( 'NONE',  ( 0.0000000000000000000, 0.0000000000000000000, 1.000000000000000000 ) ) ;
#45 = DESIGN_CONTEXT ( 'detailed design', #37, 'design' ) ;
#46 = CARTESIAN_POINT ( 'NONE',  ( 0.0000000000000000000, 0.0000000000000000000, 1.000000000000000000 ) ) ;
#47 = COORDINATED_UNIVERSAL_TIME_OFFSET ( 5, 0, .BEHIND. ) ;
#48 = APPROVAL ( #75, 'UNSPECIFIED' ) ;
#49 = CARTESIAN_POINT ( 'NONE',  ( -63.50000000000000000, 0.0000000000000000000, 1.000000000000000000 ) ) ;
#50 = AXIS2_PLACEMENT_3D ( 'NONE', #46, #172, #91 ) ;
#51 = DIRECTION ( 'NONE',  ( 0.0000000000000000000, 0.0000000000000000000, 1.000000000000000000 ) ) ;
#52 = EDGE_LOOP ( 'NONE', ( #110, #63 ) ) ;
#53 = PERSON_AND_ORGANIZATION_ROLE ( 'design_owner' ) ;
#54 = APPROVAL_DATE_TIME ( #38, #5 ) ;
#55 = ADVANCED_FACE ( 'NONE', ( #151 ), #42, .T. ) ;
#56 = APPROVAL_STATUS ( 'not_yet_approved' ) ;
#57 = VERTEX_POINT ( 'NONE', #160 ) ;
#58 = LOCAL_TIME ( 15, 57, 11.00000000000000000, #103 ) ;
#59 = APPROVAL_PERSON_ORGANIZATION ( #25, #5, #26 ) ;
#60 = CC_DESIGN_APPROVAL ( #48, ( #40 ) ) ;
#61 = DIRECTION ( 'NONE',  ( 0.0000000000000000000, 0.0000000000000000000, 1.000000000000000000 ) ) ;
#62 = AXIS2_PLACEMENT_3D ( 'NONE', #65, #61, #161 ) ;
#63 = ORIENTED_EDGE ( 'NONE', *, *, #128, .T. ) ;
#64 = ORIENTED_EDGE ( 'NONE', *, *, #7, .F. ) ;
#65 = CARTESIAN_POINT ( 'NONE',  ( 0.0000000000000000000, 0.0000000000000000000, 1.000000000000000000 ) ) ;
#66 = CIRCLE ( 'NONE', #94, 63.50000000000000000 ) ;
#67 = SHAPE_DEFINITION_REPRESENTATION ( #154, #104 ) ;
#68 = PLANE ( 'NONE',  #31 ) ;
#69 = ORIENTED_EDGE ( 'NONE', *, *, #128, .F. ) ;
#70 = EDGE_LOOP ( 'NONE', ( #18, #64, #169, #141 ) ) ;
#71 = LOCAL_TIME ( 15, 57, 11.00000000000000000, #11 ) ;
#72 = DIRECTION ( 'NONE',  ( 0.0000000000000000000, 0.0000000000000000000, 1.000000000000000000 ) ) ;
#73 = PERSON_AND_ORGANIZATION ( #12, #131 ) ;
#74 =( NAMED_UNIT ( * ) SI_UNIT ( $, .STERADIAN. ) SOLID_ANGLE_UNIT ( ) );
#75 = APPROVAL_STATUS ( 'not_yet_approved' ) ;
#76 = CC_DESIGN_PERSON_AND_ORGANIZATION_ASSIGNMENT ( #73, #134, ( #40 ) ) ;
#77 = AXIS2_PLACEMENT_3D ( 'NONE', #124, #81, #15 ) ;
#78 = FACE_OUTER_BOUND ( 'NONE', #70, .T. ) ;
#79 = DATE_AND_TIME ( #34, #150 ) ;
#80 = EDGE_CURVE ( 'NONE', #143, #136, #145, .T. ) ;
#81 = DIRECTION ( 'NONE',  ( 0.0000000000000000000, 0.0000000000000000000, 1.000000000000000000 ) ) ;
#82 = PERSON_AND_ORGANIZATION ( #12, #131 ) ;
#83 = CC_DESIGN_PERSON_AND_ORGANIZATION_ASSIGNMENT ( #162, #148, ( #40 ) ) ;
#84 = EDGE_CURVE ( 'NONE', #57, #143, #139, .T. ) ;
#85 =( GEOMETRIC_REPRESENTATION_CONTEXT ( 3 ) GLOBAL_UNCERTAINTY_ASSIGNED_CONTEXT ( ( #137 ) ) GLOBAL_UNIT_ASSIGNED_CONTEXT ( ( #102, #24, #74 ) ) REPRESENTATION_CONTEXT ( 'NONE', 'WORKASPACE' ) );
#86 = EDGE_CURVE ( 'NONE', #136, #143, #98, .T. ) ;
#87 = CARTESIAN_POINT ( 'NONE',  ( 0.0000000000000000000, 0.0000000000000000000, 0.0000000000000000000 ) ) ;
#88 = CARTESIAN_POINT ( 'NONE',  ( -63.50000000000000000, 0.0000000000000000000, 0.0000000000000000000 ) ) ;
#89 = APPROVAL_ROLE ( '' ) ;
#90 = ADVANCED_FACE ( 'NONE', ( #78 ), #114, .T. ) ;
#91 = DIRECTION ( 'NONE',  ( -1.000000000000000000, 0.0000000000000000000, 0.0000000000000000000 ) ) ;
#92 = CARTESIAN_POINT ( 'NONE',  ( 63.50000000000000000, 7.776507174585693000E-015, 1.000000000000000000 ) ) ;
#93 = SECURITY_CLASSIFICATION ( '', '', #120 ) ;
#94 = AXIS2_PLACEMENT_3D ( 'NONE', #157, #107, #121 ) ;
#95 = DIRECTION ( 'NONE',  ( -0.0000000000000000000, -0.0000000000000000000, -1.000000000000000000 ) ) ;
#96 = ORIENTED_EDGE ( 'NONE', *, *, #86, .F. ) ;
#97 = MANIFOLD_SOLID_BREP ( 'Boss-Extrude1', #100 ) ;
#98 = CIRCLE ( 'NONE', #77, 63.50000000000000000 ) ;
#99 = DIRECTION ( 'NONE',  ( -0.0000000000000000000, -0.0000000000000000000, -1.000000000000000000 ) ) ;
#100 = CLOSED_SHELL ( 'NONE', ( #41, #90, #55, #39 ) ) ;
#101 = COORDINATED_UNIVERSAL_TIME_OFFSET ( 5, 0, .BEHIND. ) ;
#102 =( LENGTH_UNIT ( ) NAMED_UNIT ( * ) SI_UNIT ( .MILLI., .METRE. ) );
#103 = COORDINATED_UNIVERSAL_TIME_OFFSET ( 5, 0, .BEHIND. ) ;
#104 = ADVANCED_BREP_SHAPE_REPRESENTATION ( 'Web Model 48858_63216', ( #97, #144 ), #85 ) ;
#105 = APPLICATION_PROTOCOL_DEFINITION ( 'international standard', 'config_control_design', 1994, #37 ) ;
#106 = APPROVAL_ROLE ( '' ) ;
#107 = DIRECTION ( 'NONE',  ( 0.0000000000000000000, 0.0000000000000000000, 1.000000000000000000 ) ) ;
#108 = CC_DESIGN_PERSON_AND_ORGANIZATION_ASSIGNMENT ( #159, #112, ( #93 ) ) ;
#109 = ORIENTED_EDGE ( 'NONE', *, *, #80, .T. ) ;
#110 = ORIENTED_EDGE ( 'NONE', *, *, #7, .T. ) ;
#111 = AXIS2_PLACEMENT_3D ( 'NONE', #44, #4, #129 ) ;
#112 = PERSON_AND_ORGANIZATION_ROLE ( 'classification_officer' ) ;
#113 = ORIENTED_EDGE ( 'NONE', *, *, #80, .F. ) ;
#114 = CYLINDRICAL_SURFACE ( 'NONE', #111, 63.50000000000000000 ) ;
#115 = CC_DESIGN_DATE_AND_TIME_ASSIGNMENT ( #149, #13, ( #93 ) ) ;
#116 = CARTESIAN_POINT ( 'NONE',  ( -63.50000000000000000, 0.0000000000000000000, 1.000000000000000000 ) ) ;
#117 = APPROVAL_DATE_TIME ( #79, #127 ) ;
#118 = APPLICATION_PROTOCOL_DEFINITION ( 'international standard', 'config_control_design', 1994, #133 ) ;
#119 = PERSON_AND_ORGANIZATION ( #12, #131 ) ;
#120 = SECURITY_CLASSIFICATION_LEVEL ( 'unclassified' ) ;
#121 = DIRECTION ( 'NONE',  ( 1.000000000000000000, 0.0000000000000000000, 0.0000000000000000000 ) ) ;
#122 = CALENDAR_DATE ( 2017, 1, 3 ) ;
#123 = DATE_AND_TIME ( #170, #58 ) ;
#124 = CARTESIAN_POINT ( 'NONE',  ( 0.0000000000000000000, 0.0000000000000000000, 0.0000000000000000000 ) ) ;
#125 = DIRECTION ( 'NONE',  ( 0.0000000000000000000, 0.0000000000000000000, 1.000000000000000000 ) ) ;
#126 = LOCAL_TIME ( 15, 57, 11.00000000000000000, #101 ) ;
#127 = APPROVAL ( #167, 'UNSPECIFIED' ) ;
#128 = EDGE_CURVE ( 'NONE', #57, #27, #66, .T. ) ;
#129 = DIRECTION ( 'NONE',  ( -1.000000000000000000, 0.0000000000000000000, 0.0000000000000000000 ) ) ;
#130 = LINE ( 'NONE', #49, #28 ) ;
#131 = ORGANIZATION ( 'UNSPECIFIED', 'UNSPECIFIED', '' ) ;
#132 = PERSON_AND_ORGANIZATION ( #12, #131 ) ;
#133 = APPLICATION_CONTEXT ( 'configuration controlled 3d designs of mechanical parts and assemblies' ) ;
#134 = PERSON_AND_ORGANIZATION_ROLE ( 'creator' ) ;
#135 = CC_DESIGN_APPROVAL ( #127, ( #93 ) ) ;
#136 = VERTEX_POINT ( 'NONE', #88 ) ;
#137 = UNCERTAINTY_MEASURE_WITH_UNIT (LENGTH_MEASURE( 1.000000000000000100E-005 ), #102, 'distance_accuracy_value', 'NONE');
#138 = APPROVAL_PERSON_ORGANIZATION ( #8, #48, #106 ) ;
#139 = LINE ( 'NONE', #92, #166 ) ;
#140 = FACE_OUTER_BOUND ( 'NONE', #22, .T. ) ;
#141 = ORIENTED_EDGE ( 'NONE', *, *, #86, .T. ) ;
#142 = CC_DESIGN_SECURITY_CLASSIFICATION ( #93, ( #40 ) ) ;
#143 = VERTEX_POINT ( 'NONE', #174 ) ;
#144 = AXIS2_PLACEMENT_3D ( 'NONE', #17, #9, #156 ) ;
#145 = CIRCLE ( 'NONE', #21, 63.50000000000000000 ) ;
#146 = PERSON_AND_ORGANIZATION_ROLE ( 'creator' ) ;
#147 = CALENDAR_DATE ( 2017, 1, 3 ) ;
#148 = PERSON_AND_ORGANIZATION_ROLE ( 'design_supplier' ) ;
#149 = DATE_AND_TIME ( #122, #71 ) ;
#150 = LOCAL_TIME ( 15, 57, 11.00000000000000000, #47 ) ;
#151 = FACE_OUTER_BOUND ( 'NONE', #52, .T. ) ;
#152 = CC_DESIGN_PERSON_AND_ORGANIZATION_ASSIGNMENT ( #119, #53, ( #2 ) ) ;
#153 = FACE_OUTER_BOUND ( 'NONE', #168, .T. ) ;
#154 = PRODUCT_DEFINITION_SHAPE ( 'NONE', 'NONE',  #158 ) ;
#155 = CARTESIAN_POINT ( 'NONE',  ( 0.0000000000000000000, 0.0000000000000000000, 1.000000000000000000 ) ) ;
#156 = DIRECTION ( 'NONE',  ( 1.000000000000000000, 0.0000000000000000000, 0.0000000000000000000 ) ) ;
#157 = CARTESIAN_POINT ( 'NONE',  ( 0.0000000000000000000, 0.0000000000000000000, 1.000000000000000000 ) ) ;
#158 = PRODUCT_DEFINITION ( 'UNKNOWN', '', #40, #45 ) ;
#159 = PERSON_AND_ORGANIZATION ( #12, #131 ) ;
#160 = CARTESIAN_POINT ( 'NONE',  ( 63.50000000000000000, 7.776507174585693000E-015, 1.000000000000000000 ) ) ;
#161 = DIRECTION ( 'NONE',  ( 1.000000000000000000, 0.0000000000000000000, -0.0000000000000000000 ) ) ;
#162 = PERSON_AND_ORGANIZATION ( #12, #131 ) ;
#163 = ORIENTED_EDGE ( 'NONE', *, *, #32, .F. ) ;
#164 = APPROVAL_PERSON_ORGANIZATION ( #82, #127, #89 ) ;
#165 = DATE_TIME_ROLE ( 'creation_date' ) ;
#166 = VECTOR ( 'NONE', #95, 1000.000000000000000 ) ;
#167 = APPROVAL_STATUS ( 'not_yet_approved' ) ;
#168 = EDGE_LOOP ( 'NONE', ( #69, #23, #109, #163 ) ) ;
#169 = ORIENTED_EDGE ( 'NONE', *, *, #32, .T. ) ;
#170 = CALENDAR_DATE ( 2017, 1, 3 ) ;
#171 = APPROVAL_DATE_TIME ( #43, #48 ) ;
#172 = DIRECTION ( 'NONE',  ( -0.0000000000000000000, -0.0000000000000000000, -1.000000000000000000 ) ) ;
#173 = CIRCLE ( 'NONE', #30, 63.50000000000000000 ) ;
#174 = CARTESIAN_POINT ( 'NONE',  ( 63.50000000000000000, 7.776507174585693000E-015, 0.0000000000000000000 ) ) ;
#175 = CALENDAR_DATE ( 2017, 1, 3 ) ;
ENDSEC;
END-ISO-10303-21;
