ISO-10303-21;
HEADER;
FILE_DESCRIPTION (( 'STEP AP203' ),
    '1' );
FILE_NAME ('Web Model 37689_11546.step',
    '2019-01-09T20:26:13',
    ( '' ),
    ( '' ),
    'SwSTEP 2.0',
    'SolidWorks 2016',
    '' );
FILE_SCHEMA (( 'CONFIG_CONTROL_DESIGN' ));
ENDSEC;

DATA;
#1 = COORDINATED_UNIVERSAL_TIME_OFFSET ( 5, 0, .BEHIND. ) ;
#2 = APPLICATION_PROTOCOL_DEFINITION ( 'international standard', 'config_control_design', 1994, #92 ) ;
#3 = DIRECTION ( 'NONE',  ( 1.000000000000000000, 0.0000000000000000000, -0.0000000000000000000 ) ) ;
#4 = PRODUCT_RELATED_PRODUCT_CATEGORY ( 'detail', '', ( #124 ) ) ;
#5 = ORIENTED_EDGE ( 'NONE', *, *, #6, .F. ) ;
#6 = EDGE_CURVE ( 'NONE', #140, #27, #12, .T. ) ;
#7 = APPROVAL_DATE_TIME ( #59, #66 ) ;
#8 = CARTESIAN_POINT ( 'NONE',  ( -12.69999999999999900, 0.0000000000000000000, 3.174999999999999800 ) ) ;
#9 = FACE_OUTER_BOUND ( 'NONE', #145, .T. ) ;
#10 = PERSON ( 'UNSPECIFIED', 'UNSPECIFIED', 'UNSPECIFIED', ('UNSPECIFIED'), ('UNSPECIFIED'), ('UNSPECIFIED') ) ;
#11 =( LENGTH_UNIT ( ) NAMED_UNIT ( * ) SI_UNIT ( .MILLI., .METRE. ) );
#12 = LINE ( 'NONE', #87, #75 ) ;
#13 = PERSON_AND_ORGANIZATION ( #10, #56 ) ;
#14 = AXIS2_PLACEMENT_3D ( 'NONE', #107, #99, #3 ) ;
#15 = DATE_TIME_ROLE ( 'creation_date' ) ;
#16 = CC_DESIGN_DATE_AND_TIME_ASSIGNMENT ( #113, #103, ( #51 ) ) ;
#17 = PLANE ( 'NONE',  #14 ) ;
#18 = ORIENTED_EDGE ( 'NONE', *, *, #52, .F. ) ;
#19 = APPROVAL ( #43, 'UNSPECIFIED' ) ;
#20 = FACE_OUTER_BOUND ( 'NONE', #53, .T. ) ;
#21 = CARTESIAN_POINT ( 'NONE',  ( 12.69999999999999900, 1.555301434917138400E-015, -3.174999999999999800 ) ) ;
#22 = APPROVAL_DATE_TIME ( #132, #19 ) ;
#23 = ORIENTED_EDGE ( 'NONE', *, *, #175, .F. ) ;
#24 = LOCAL_TIME ( 15, 26, 13.00000000000000000, #94 ) ;
#25 = AXIS2_PLACEMENT_3D ( 'NONE', #77, #95, #111 ) ;
#26 = DIRECTION ( 'NONE',  ( 1.000000000000000000, 0.0000000000000000000, 0.0000000000000000000 ) ) ;
#27 = VERTEX_POINT ( 'NONE', #21 ) ;
#28 = CC_DESIGN_DATE_AND_TIME_ASSIGNMENT ( #110, #15, ( #136 ) ) ;
#29 = APPROVAL_DATE_TIME ( #117, #121 ) ;
#30 = APPROVAL_STATUS ( 'not_yet_approved' ) ;
#31 =( NAMED_UNIT ( * ) SI_UNIT ( $, .STERADIAN. ) SOLID_ANGLE_UNIT ( ) );
#32 = CARTESIAN_POINT ( 'NONE',  ( 0.0000000000000000000, 0.0000000000000000000, 0.0000000000000000000 ) ) ;
#33 = CALENDAR_DATE ( 2019, 9, 1 ) ;
#34 = APPROVAL_PERSON_ORGANIZATION ( #144, #66, #100 ) ;
#35 = SECURITY_CLASSIFICATION_LEVEL ( 'unclassified' ) ;
#36 = CC_DESIGN_PERSON_AND_ORGANIZATION_ASSIGNMENT ( #141, #142, ( #51 ) ) ;
#37 = SHAPE_DEFINITION_REPRESENTATION ( #128, #166 ) ;
#38 = DIRECTION ( 'NONE',  ( 0.0000000000000000000, 0.0000000000000000000, 1.000000000000000000 ) ) ;
#39 = PERSON_AND_ORGANIZATION_ROLE ( 'design_owner' ) ;
#40 = CIRCLE ( 'NONE', #149, 12.69999999999999900 ) ;
#41 = ADVANCED_FACE ( 'NONE', ( #9 ), #172, .T. ) ;
#42 = UNCERTAINTY_MEASURE_WITH_UNIT (LENGTH_MEASURE( 1.000000000000000100E-005 ), #11, 'distance_accuracy_value', 'NONE');
#43 = APPROVAL_STATUS ( 'not_yet_approved' ) ;
#44 = LINE ( 'NONE', #8, #126 ) ;
#45 = DESIGN_CONTEXT ( 'detailed design', #92, 'design' ) ;
#46 = CALENDAR_DATE ( 2019, 9, 1 ) ;
#47 = LOCAL_TIME ( 15, 26, 13.00000000000000000, #159 ) ;
#48 = ORIENTED_EDGE ( 'NONE', *, *, #146, .T. ) ;
#49 = CC_DESIGN_APPROVAL ( #66, ( #51 ) ) ;
#50 = CARTESIAN_POINT ( 'NONE',  ( -12.69999999999999900, 0.0000000000000000000, -3.174999999999999800 ) ) ;
#51 = SECURITY_CLASSIFICATION ( '', '', #35 ) ;
#52 = EDGE_CURVE ( 'NONE', #27, #158, #130, .T. ) ;
#53 = EDGE_LOOP ( 'NONE', ( #154, #18 ) ) ;
#54 = PLANE ( 'NONE',  #63 ) ;
#55 = DIRECTION ( 'NONE',  ( 1.000000000000000000, 0.0000000000000000000, 0.0000000000000000000 ) ) ;
#56 = ORGANIZATION ( 'UNSPECIFIED', 'UNSPECIFIED', '' ) ;
#57 = ORIENTED_EDGE ( 'NONE', *, *, #125, .T. ) ;
#58 = DIRECTION ( 'NONE',  ( 1.000000000000000000, 0.0000000000000000000, 0.0000000000000000000 ) ) ;
#59 = DATE_AND_TIME ( #46, #24 ) ;
#60 = PERSON_AND_ORGANIZATION_ROLE ( 'creator' ) ;
#61 = AXIS2_PLACEMENT_3D ( 'NONE', #67, #143, #26 ) ;
#62 = APPROVAL_STATUS ( 'not_yet_approved' ) ;
#63 = AXIS2_PLACEMENT_3D ( 'NONE', #82, #157, #79 ) ;
#64 = PERSON_AND_ORGANIZATION ( #10, #56 ) ;
#65 = CARTESIAN_POINT ( 'NONE',  ( -12.69999999999999900, 0.0000000000000000000, 3.174999999999999800 ) ) ;
#66 = APPROVAL ( #62, 'UNSPECIFIED' ) ;
#67 = CARTESIAN_POINT ( 'NONE',  ( 0.0000000000000000000, 0.0000000000000000000, 3.174999999999999800 ) ) ;
#68 = ADVANCED_FACE ( 'NONE', ( #96 ), #17, .T. ) ;
#69 = PERSON_AND_ORGANIZATION_ROLE ( 'design_supplier' ) ;
#70 =( NAMED_UNIT ( * ) PLANE_ANGLE_UNIT ( ) SI_UNIT ( $, .RADIAN. ) );
#71 = DIRECTION ( 'NONE',  ( -0.0000000000000000000, -0.0000000000000000000, -1.000000000000000000 ) ) ;
#72 = ORIENTED_EDGE ( 'NONE', *, *, #125, .F. ) ;
#73 = CALENDAR_DATE ( 2019, 9, 1 ) ;
#74 = DIRECTION ( 'NONE',  ( 1.000000000000000000, 0.0000000000000000000, 0.0000000000000000000 ) ) ;
#75 = VECTOR ( 'NONE', #71, 1000.000000000000000 ) ;
#76 = MECHANICAL_CONTEXT ( 'NONE', #139, 'mechanical' ) ;
#77 = CARTESIAN_POINT ( 'NONE',  ( 0.0000000000000000000, 0.0000000000000000000, -3.174999999999999800 ) ) ;
#78 = CC_DESIGN_PERSON_AND_ORGANIZATION_ASSIGNMENT ( #156, #60, ( #136 ) ) ;
#79 = DIRECTION ( 'NONE',  ( 1.000000000000000000, 0.0000000000000000000, -0.0000000000000000000 ) ) ;
#80 = PERSON_AND_ORGANIZATION ( #10, #56 ) ;
#81 = CALENDAR_DATE ( 2019, 9, 1 ) ;
#82 = CARTESIAN_POINT ( 'NONE',  ( 0.0000000000000000000, 0.0000000000000000000, -3.174999999999999800 ) ) ;
#83 = ORIENTED_EDGE ( 'NONE', *, *, #108, .F. ) ;
#84 = CARTESIAN_POINT ( 'NONE',  ( 12.69999999999999900, 1.555301434917138400E-015, 3.174999999999999800 ) ) ;
#85 = DIRECTION ( 'NONE',  ( -1.000000000000000000, 0.0000000000000000000, 0.0000000000000000000 ) ) ;
#86 = PERSON_AND_ORGANIZATION ( #10, #56 ) ;
#87 = CARTESIAN_POINT ( 'NONE',  ( 12.69999999999999900, 1.555301434917138400E-015, 3.174999999999999800 ) ) ;
#88 = ORIENTED_EDGE ( 'NONE', *, *, #52, .T. ) ;
#89 = AXIS2_PLACEMENT_3D ( 'NONE', #32, #38, #74 ) ;
#90 = EDGE_LOOP ( 'NONE', ( #5, #72, #104, #48 ) ) ;
#91 = PRODUCT_DEFINITION_FORMATION_WITH_SPECIFIED_SOURCE ( 'ANY', '', #124, .NOT_KNOWN. ) ;
#92 = APPLICATION_CONTEXT ( 'configuration controlled 3d designs of mechanical parts and assemblies' ) ;
#93 = DIRECTION ( 'NONE',  ( 0.0000000000000000000, 0.0000000000000000000, 1.000000000000000000 ) ) ;
#94 = COORDINATED_UNIVERSAL_TIME_OFFSET ( 5, 0, .BEHIND. ) ;
#95 = DIRECTION ( 'NONE',  ( 0.0000000000000000000, 0.0000000000000000000, 1.000000000000000000 ) ) ;
#96 = FACE_OUTER_BOUND ( 'NONE', #150, .T. ) ;
#97 = LOCAL_TIME ( 15, 26, 13.00000000000000000, #1 ) ;
#98 = APPROVAL_PERSON_ORGANIZATION ( #80, #121, #129 ) ;
#99 = DIRECTION ( 'NONE',  ( 0.0000000000000000000, 0.0000000000000000000, 1.000000000000000000 ) ) ;
#100 = APPROVAL_ROLE ( '' ) ;
#101 = LOCAL_TIME ( 15, 26, 13.00000000000000000, #151 ) ;
#102 = ADVANCED_FACE ( 'NONE', ( #114 ), #135, .T. ) ;
#103 = DATE_TIME_ROLE ( 'classification_date' ) ;
#104 = ORIENTED_EDGE ( 'NONE', *, *, #175, .T. ) ;
#105 =( GEOMETRIC_REPRESENTATION_CONTEXT ( 3 ) GLOBAL_UNCERTAINTY_ASSIGNED_CONTEXT ( ( #42 ) ) GLOBAL_UNIT_ASSIGNED_CONTEXT ( ( #11, #70, #31 ) ) REPRESENTATION_CONTEXT ( 'NONE', 'WORKASPACE' ) );
#106 = AXIS2_PLACEMENT_3D ( 'NONE', #171, #137, #152 ) ;
#107 = CARTESIAN_POINT ( 'NONE',  ( 0.0000000000000000000, 0.0000000000000000000, 3.174999999999999800 ) ) ;
#108 = EDGE_CURVE ( 'NONE', #140, #165, #133, .T. ) ;
#109 = PERSON_AND_ORGANIZATION_ROLE ( 'creator' ) ;
#110 = DATE_AND_TIME ( #81, #97 ) ;
#111 = DIRECTION ( 'NONE',  ( 1.000000000000000000, 0.0000000000000000000, 0.0000000000000000000 ) ) ;
#112 = COORDINATED_UNIVERSAL_TIME_OFFSET ( 5, 0, .BEHIND. ) ;
#113 = DATE_AND_TIME ( #73, #101 ) ;
#114 = FACE_OUTER_BOUND ( 'NONE', #90, .T. ) ;
#115 = CARTESIAN_POINT ( 'NONE',  ( 0.0000000000000000000, 0.0000000000000000000, -3.174999999999999800 ) ) ;
#116 = ADVANCED_FACE ( 'NONE', ( #20 ), #54, .F. ) ;
#117 = DATE_AND_TIME ( #33, #122 ) ;
#118 = CARTESIAN_POINT ( 'NONE',  ( 0.0000000000000000000, 0.0000000000000000000, 3.174999999999999800 ) ) ;
#119 = CC_DESIGN_PERSON_AND_ORGANIZATION_ASSIGNMENT ( #13, #69, ( #91 ) ) ;
#120 = APPROVAL_PERSON_ORGANIZATION ( #86, #19, #148 ) ;
#121 = APPROVAL ( #30, 'UNSPECIFIED' ) ;
#122 = LOCAL_TIME ( 15, 26, 13.00000000000000000, #112 ) ;
#123 = CC_DESIGN_SECURITY_CLASSIFICATION ( #51, ( #91 ) ) ;
#124 = PRODUCT ( 'Web Model 37689_11546', 'Web Model 37689_11546', '', ( #76 ) ) ;
#125 = EDGE_CURVE ( 'NONE', #165, #140, #169, .T. ) ;
#126 = VECTOR ( 'NONE', #173, 1000.000000000000000 ) ;
#127 = CALENDAR_DATE ( 2019, 9, 1 ) ;
#128 = PRODUCT_DEFINITION_SHAPE ( 'NONE', 'NONE',  #136 ) ;
#129 = APPROVAL_ROLE ( '' ) ;
#130 = CIRCLE ( 'NONE', #25, 12.69999999999999900 ) ;
#131 = CARTESIAN_POINT ( 'NONE',  ( 0.0000000000000000000, 0.0000000000000000000, 3.174999999999999800 ) ) ;
#132 = DATE_AND_TIME ( #127, #47 ) ;
#133 = CIRCLE ( 'NONE', #162, 12.69999999999999900 ) ;
#134 = APPLICATION_PROTOCOL_DEFINITION ( 'international standard', 'config_control_design', 1994, #139 ) ;
#135 = CYLINDRICAL_SURFACE ( 'NONE', #174, 12.69999999999999900 ) ;
#136 = PRODUCT_DEFINITION ( 'UNKNOWN', '', #91, #45 ) ;
#137 = DIRECTION ( 'NONE',  ( -0.0000000000000000000, -0.0000000000000000000, -1.000000000000000000 ) ) ;
#138 = CC_DESIGN_PERSON_AND_ORGANIZATION_ASSIGNMENT ( #168, #109, ( #91 ) ) ;
#139 = APPLICATION_CONTEXT ( 'configuration controlled 3d designs of mechanical parts and assemblies' ) ;
#140 = VERTEX_POINT ( 'NONE', #84 ) ;
#141 = PERSON_AND_ORGANIZATION ( #10, #56 ) ;
#142 = PERSON_AND_ORGANIZATION_ROLE ( 'classification_officer' ) ;
#143 = DIRECTION ( 'NONE',  ( 0.0000000000000000000, 0.0000000000000000000, 1.000000000000000000 ) ) ;
#144 = PERSON_AND_ORGANIZATION ( #10, #56 ) ;
#145 = EDGE_LOOP ( 'NONE', ( #83, #170, #88, #23 ) ) ;
#146 = EDGE_CURVE ( 'NONE', #158, #27, #40, .T. ) ;
#147 = CC_DESIGN_PERSON_AND_ORGANIZATION_ASSIGNMENT ( #64, #39, ( #124 ) ) ;
#148 = APPROVAL_ROLE ( '' ) ;
#149 = AXIS2_PLACEMENT_3D ( 'NONE', #115, #155, #55 ) ;
#150 = EDGE_LOOP ( 'NONE', ( #57, #161 ) ) ;
#151 = COORDINATED_UNIVERSAL_TIME_OFFSET ( 5, 0, .BEHIND. ) ;
#152 = DIRECTION ( 'NONE',  ( -1.000000000000000000, 0.0000000000000000000, 0.0000000000000000000 ) ) ;
#153 = CC_DESIGN_APPROVAL ( #19, ( #91 ) ) ;
#154 = ORIENTED_EDGE ( 'NONE', *, *, #146, .F. ) ;
#155 = DIRECTION ( 'NONE',  ( 0.0000000000000000000, 0.0000000000000000000, 1.000000000000000000 ) ) ;
#156 = PERSON_AND_ORGANIZATION ( #10, #56 ) ;
#157 = DIRECTION ( 'NONE',  ( 0.0000000000000000000, 0.0000000000000000000, 1.000000000000000000 ) ) ;
#158 = VERTEX_POINT ( 'NONE', #50 ) ;
#159 = COORDINATED_UNIVERSAL_TIME_OFFSET ( 5, 0, .BEHIND. ) ;
#160 = DIRECTION ( 'NONE',  ( -0.0000000000000000000, -0.0000000000000000000, -1.000000000000000000 ) ) ;
#161 = ORIENTED_EDGE ( 'NONE', *, *, #108, .T. ) ;
#162 = AXIS2_PLACEMENT_3D ( 'NONE', #118, #93, #58 ) ;
#163 = CLOSED_SHELL ( 'NONE', ( #41, #102, #68, #116 ) ) ;
#164 = CC_DESIGN_APPROVAL ( #121, ( #136 ) ) ;
#165 = VERTEX_POINT ( 'NONE', #65 ) ;
#166 = ADVANCED_BREP_SHAPE_REPRESENTATION ( 'Web Model 37689_11546', ( #167, #89 ), #105 ) ;
#167 = MANIFOLD_SOLID_BREP ( 'Boss-Extrude1', #163 ) ;
#168 = PERSON_AND_ORGANIZATION ( #10, #56 ) ;
#169 = CIRCLE ( 'NONE', #61, 12.69999999999999900 ) ;
#170 = ORIENTED_EDGE ( 'NONE', *, *, #6, .T. ) ;
#171 = CARTESIAN_POINT ( 'NONE',  ( 0.0000000000000000000, 0.0000000000000000000, 3.174999999999999800 ) ) ;
#172 = CYLINDRICAL_SURFACE ( 'NONE', #106, 12.69999999999999900 ) ;
#173 = DIRECTION ( 'NONE',  ( -0.0000000000000000000, -0.0000000000000000000, -1.000000000000000000 ) ) ;
#174 = AXIS2_PLACEMENT_3D ( 'NONE', #131, #160, #85 ) ;
#175 = EDGE_CURVE ( 'NONE', #165, #158, #44, .T. ) ;
ENDSEC;
END-ISO-10303-21;
