ISO-10303-21;
HEADER;
FILE_DESCRIPTION (( 'STEP AP203' ),
    '1' );
FILE_NAME ('Web Model 64397MX_15760.step',
    '2020-10-19T15:36:12',
    ( '' ),
    ( '' ),
    'SwSTEP 2.0',
    'SolidWorks 2018',
    '' );
FILE_SCHEMA (( 'CONFIG_CONTROL_DESIGN' ));
ENDSEC;

DATA;
#1 = ORGANIZATION ( 'UNSPECIFIED', 'UNSPECIFIED', '' ) ;
#2 = VECTOR ( 'NONE', #181, 1000.000000000000000 ) ;
#3 = ORIENTED_EDGE ( 'NONE', *, *, #105, .T. ) ;
#4 = CARTESIAN_POINT ( 'NONE',  ( 6.349999999999998757, 6.350000000000000533, 3.000000000000000000 ) ) ;
#5 = CC_DESIGN_APPROVAL ( #197, ( #76 ) ) ;
#6 = APPROVAL_DATE_TIME ( #151, #24 ) ;
#7 = CC_DESIGN_PERSON_AND_ORGANIZATION_ASSIGNMENT ( #237, #116, ( #174 ) ) ;
#8 = EDGE_LOOP ( 'NONE', ( #17, #157, #64, #139 ) ) ;
#9 = APPROVAL_STATUS ( 'not_yet_approved' ) ;
#10 = ORIENTED_EDGE ( 'NONE', *, *, #53, .F. ) ;
#11 = APPROVAL_DATE_TIME ( #156, #49 ) ;
#12 = ORIENTED_EDGE ( 'NONE', *, *, #231, .T. ) ;
#13 = AXIS2_PLACEMENT_3D ( 'NONE', #145, #182, #221 ) ;
#14 = ORIENTED_EDGE ( 'NONE', *, *, #203, .T. ) ;
#15 = APPROVAL_PERSON_ORGANIZATION ( #196, #24, #41 ) ;
#16 = VECTOR ( 'NONE', #110, 1000.000000000000000 ) ;
#17 = ORIENTED_EDGE ( 'NONE', *, *, #229, .T. ) ;
#18 =( LENGTH_UNIT ( ) NAMED_UNIT ( * ) SI_UNIT ( .MILLI., .METRE. ) );
#19 = VERTEX_POINT ( 'NONE', #65 ) ;
#20 = ORIENTED_EDGE ( 'NONE', *, *, #232, .F. ) ;
#21 = VERTEX_POINT ( 'NONE', #189 ) ;
#22 = PLANE ( 'NONE',  #35 ) ;
#23 = APPROVAL_STATUS ( 'not_yet_approved' ) ;
#24 = APPROVAL ( #23, 'UNSPECIFIED' ) ;
#25 = SECURITY_CLASSIFICATION_LEVEL ( 'unclassified' ) ;
#26 = ORIENTED_EDGE ( 'NONE', *, *, #154, .F. ) ;
#27 = CC_DESIGN_PERSON_AND_ORGANIZATION_ASSIGNMENT ( #162, #228, ( #174 ) ) ;
#28 = CARTESIAN_POINT ( 'NONE',  ( 6.349999999999998757, 6.350000000000000533, 3.000000000000000000 ) ) ;
#29 = DIRECTION ( 'NONE',  ( 1.000000000000000000, 1.365923996832131609E-16, 0.0000000000000000000 ) ) ;
#30 = DIRECTION ( 'NONE',  ( 1.365923996832131609E-16, -1.000000000000000000, 0.0000000000000000000 ) ) ;
#31 = DIRECTION ( 'NONE',  ( -0.0000000000000000000, -1.000000000000000000, -0.0000000000000000000 ) ) ;
#32 = ORIENTED_EDGE ( 'NONE', *, *, #231, .F. ) ;
#33 = FACE_OUTER_BOUND ( 'NONE', #98, .T. ) ;
#34 = ORIENTED_EDGE ( 'NONE', *, *, #232, .T. ) ;
#35 = AXIS2_PLACEMENT_3D ( 'NONE', #146, #148, #60 ) ;
#36 = EDGE_CURVE ( 'NONE', #214, #155, #123, .T. ) ;
#37 = DIRECTION ( 'NONE',  ( -0.0000000000000000000, -0.0000000000000000000, -1.000000000000000000 ) ) ;
#38 = CC_DESIGN_DATE_AND_TIME_ASSIGNMENT ( #210, #209, ( #76 ) ) ;
#39 = PRODUCT_DEFINITION ( 'UNKNOWN', '', #174, #220 ) ;
#40 = PERSON_AND_ORGANIZATION_ROLE ( 'classification_officer' ) ;
#41 = APPROVAL_ROLE ( '' ) ;
#42 = LINE ( 'NONE', #140, #86 ) ;
#43 = ADVANCED_FACE ( 'NONE', ( #234 ), #230, .T. ) ;
#44 = CALENDAR_DATE ( 2020, 19, 10 ) ;
#45 = FACE_OUTER_BOUND ( 'NONE', #83, .T. ) ;
#46 = LINE ( 'NONE', #183, #2 ) ;
#47 = PERSON_AND_ORGANIZATION ( #176, #1 ) ;
#48 = ORIENTED_EDGE ( 'NONE', *, *, #229, .F. ) ;
#49 = APPROVAL ( #9, 'UNSPECIFIED' ) ;
#50 = CC_DESIGN_PERSON_AND_ORGANIZATION_ASSIGNMENT ( #47, #40, ( #76 ) ) ;
#51 = EDGE_CURVE ( 'NONE', #21, #160, #132, .T. ) ;
#52 = PERSON_AND_ORGANIZATION ( #176, #1 ) ;
#53 = EDGE_CURVE ( 'NONE', #205, #19, #42, .T. ) ;
#54 = CC_DESIGN_SECURITY_CLASSIFICATION ( #76, ( #174 ) ) ;
#55 = DIRECTION ( 'NONE',  ( 1.000000000000000000, 0.0000000000000000000, 0.0000000000000000000 ) ) ;
#56 = CARTESIAN_POINT ( 'NONE',  ( 0.0000000000000000000, 0.0000000000000000000, 0.0000000000000000000 ) ) ;
#57 = CARTESIAN_POINT ( 'NONE',  ( -6.350000000000000533, -6.350000000000000533, 3.000000000000000000 ) ) ;
#58 = ORIENTED_EDGE ( 'NONE', *, *, #190, .T. ) ;
#59 = CARTESIAN_POINT ( 'NONE',  ( 6.349999999999998757, -6.349999999999998757, -3.000000000000000000 ) ) ;
#60 = DIRECTION ( 'NONE',  ( 0.0000000000000000000, 0.0000000000000000000, 1.000000000000000000 ) ) ;
#61 = COORDINATED_UNIVERSAL_TIME_OFFSET ( 5, 0, .BEHIND. ) ;
#62 = VECTOR ( 'NONE', #202, 1000.000000000000000 ) ;
#63 = CARTESIAN_POINT ( 'NONE',  ( 6.349999999999998757, -6.349999999999998757, -3.000000000000000000 ) ) ;
#64 = ORIENTED_EDGE ( 'NONE', *, *, #154, .T. ) ;
#65 = CARTESIAN_POINT ( 'NONE',  ( 6.349999999999998757, -6.349999999999998757, 3.000000000000000000 ) ) ;
#66 = ADVANCED_BREP_SHAPE_REPRESENTATION ( 'Web Model 64397MX_15760', ( #216, #167 ), #82 ) ;
#67 = DIRECTION ( 'NONE',  ( 1.000000000000000000, 1.365923996832131609E-16, -0.0000000000000000000 ) ) ;
#68 = VECTOR ( 'NONE', #144, 1000.000000000000000 ) ;
#69 = PLANE ( 'NONE',  #13 ) ;
#70 = DIRECTION ( 'NONE',  ( -0.0000000000000000000, -0.0000000000000000000, -1.000000000000000000 ) ) ;
#71 = FACE_OUTER_BOUND ( 'NONE', #143, .T. ) ;
#72 = CARTESIAN_POINT ( 'NONE',  ( -6.350000000000000533, 6.349999999999998757, 3.000000000000000000 ) ) ;
#73 = ORIENTED_EDGE ( 'NONE', *, *, #36, .F. ) ;
#74 = CARTESIAN_POINT ( 'NONE',  ( -6.350000000000000533, -6.350000000000000533, -3.000000000000000000 ) ) ;
#75 = DIRECTION ( 'NONE',  ( 0.0000000000000000000, 1.000000000000000000, 0.0000000000000000000 ) ) ;
#76 = SECURITY_CLASSIFICATION ( '', '', #25 ) ;
#77 = AXIS2_PLACEMENT_3D ( 'NONE', #57, #55, #94 ) ;
#78 = APPROVAL_PERSON_ORGANIZATION ( #135, #197, #130 ) ;
#79 = DATE_TIME_ROLE ( 'creation_date' ) ;
#80 = APPROVAL_ROLE ( '' ) ;
#81 = MECHANICAL_CONTEXT ( 'NONE', #99, 'mechanical' ) ;
#82 =( GEOMETRIC_REPRESENTATION_CONTEXT ( 3 ) GLOBAL_UNCERTAINTY_ASSIGNED_CONTEXT ( ( #115 ) ) GLOBAL_UNIT_ASSIGNED_CONTEXT ( ( #18, #204, #180 ) ) REPRESENTATION_CONTEXT ( 'NONE', 'WORKASPACE' ) );
#83 = EDGE_LOOP ( 'NONE', ( #179, #193, #10, #14 ) ) ;
#84 = CARTESIAN_POINT ( 'NONE',  ( 0.0000000000000000000, 0.0000000000000000000, 3.000000000000000000 ) ) ;
#85 = LINE ( 'NONE', #74, #16 ) ;
#86 = VECTOR ( 'NONE', #90, 1000.000000000000000 ) ;
#87 = CC_DESIGN_DATE_AND_TIME_ASSIGNMENT ( #125, #79, ( #39 ) ) ;
#88 = LINE ( 'NONE', #104, #159 ) ;
#89 = EDGE_CURVE ( 'NONE', #160, #227, #88, .T. ) ;
#90 = DIRECTION ( 'NONE',  ( 1.000000000000000000, 1.365923996832131609E-16, -0.0000000000000000000 ) ) ;
#91 = COORDINATED_UNIVERSAL_TIME_OFFSET ( 5, 0, .BEHIND. ) ;
#92 = VECTOR ( 'NONE', #175, 1000.000000000000000 ) ;
#93 = CARTESIAN_POINT ( 'NONE',  ( 6.349999999999998757, 6.350000000000000533, -3.000000000000000000 ) ) ;
#94 = DIRECTION ( 'NONE',  ( 0.0000000000000000000, 0.0000000000000000000, -1.000000000000000000 ) ) ;
#95 = APPROVAL_DATE_TIME ( #127, #197 ) ;
#96 = LINE ( 'NONE', #178, #184 ) ;
#97 = VECTOR ( 'NONE', #31, 1000.000000000000000 ) ;
#98 = EDGE_LOOP ( 'NONE', ( #12, #119, #218, #58 ) ) ;
#99 = APPLICATION_CONTEXT ( 'configuration controlled 3d designs of mechanical parts and assemblies' ) ;
#100 = VECTOR ( 'NONE', #75, 1000.000000000000000 ) ;
#101 = VECTOR ( 'NONE', #37, 1000.000000000000000 ) ;
#102 = AXIS2_PLACEMENT_3D ( 'NONE', #84, #213, #122 ) ;
#103 = CC_DESIGN_APPROVAL ( #49, ( #39 ) ) ;
#104 = CARTESIAN_POINT ( 'NONE',  ( -6.350000000000000533, 6.349999999999998757, 3.000000000000000000 ) ) ;
#105 = EDGE_CURVE ( 'NONE', #19, #155, #96, .T. ) ;
#106 = LOCAL_TIME ( 11, 36, 12.00000000000000000, #217 ) ;
#107 = PERSON_AND_ORGANIZATION ( #176, #1 ) ;
#108 = FACE_OUTER_BOUND ( 'NONE', #212, .T. ) ;
#109 = ORIENTED_EDGE ( 'NONE', *, *, #173, .F. ) ;
#110 = DIRECTION ( 'NONE',  ( -0.0000000000000000000, -1.000000000000000000, -0.0000000000000000000 ) ) ;
#111 = PLANE ( 'NONE',  #77 ) ;
#112 = ORIENTED_EDGE ( 'NONE', *, *, #173, .T. ) ;
#113 = CARTESIAN_POINT ( 'NONE',  ( -6.350000000000000533, -6.350000000000000533, 3.000000000000000000 ) ) ;
#114 = PERSON_AND_ORGANIZATION ( #176, #1 ) ;
#115 = UNCERTAINTY_MEASURE_WITH_UNIT (LENGTH_MEASURE( 1.000000000000000082E-05 ), #18, 'distance_accuracy_value', 'NONE');
#116 = PERSON_AND_ORGANIZATION_ROLE ( 'design_supplier' ) ;
#117 = ADVANCED_FACE ( 'NONE', ( #45 ), #163, .F. ) ;
#118 = AXIS2_PLACEMENT_3D ( 'NONE', #219, #142, #124 ) ;
#119 = ORIENTED_EDGE ( 'NONE', *, *, #89, .F. ) ;
#120 = CALENDAR_DATE ( 2020, 19, 10 ) ;
#121 = LINE ( 'NONE', #113, #101 ) ;
#122 = DIRECTION ( 'NONE',  ( 1.000000000000000000, 0.0000000000000000000, -0.0000000000000000000 ) ) ;
#123 = LINE ( 'NONE', #63, #188 ) ;
#124 = DIRECTION ( 'NONE',  ( -1.000000000000000000, -1.365923996832131609E-16, 0.0000000000000000000 ) ) ;
#125 = DATE_AND_TIME ( #44, #215 ) ;
#126 = CARTESIAN_POINT ( 'NONE',  ( 6.349999999999998757, 6.350000000000000533, 3.000000000000000000 ) ) ;
#127 = DATE_AND_TIME ( #120, #106 ) ;
#128 = CARTESIAN_POINT ( 'NONE',  ( 6.349999999999998757, -6.349999999999998757, -3.000000000000000000 ) ) ;
#129 = PERSON_AND_ORGANIZATION_ROLE ( 'creator' ) ;
#130 = APPROVAL_ROLE ( '' ) ;
#131 = ADVANCED_FACE ( 'NONE', ( #33 ), #236, .F. ) ;
#132 = LINE ( 'NONE', #28, #92 ) ;
#133 = APPLICATION_CONTEXT ( 'configuration controlled 3d designs of mechanical parts and assemblies' ) ;
#134 = ADVANCED_FACE ( 'NONE', ( #168 ), #69, .F. ) ;
#135 = PERSON_AND_ORGANIZATION ( #176, #1 ) ;
#136 = LINE ( 'NONE', #206, #68 ) ;
#137 = LOCAL_TIME ( 11, 36, 12.00000000000000000, #138 ) ;
#138 = COORDINATED_UNIVERSAL_TIME_OFFSET ( 5, 0, .BEHIND. ) ;
#139 = ORIENTED_EDGE ( 'NONE', *, *, #51, .T. ) ;
#140 = CARTESIAN_POINT ( 'NONE',  ( 6.349999999999998757, -6.349999999999998757, 3.000000000000000000 ) ) ;
#141 = PRODUCT ( 'Web Model 64397MX_15760', 'Web Model 64397MX_15760', '', ( #81 ) ) ;
#142 = DIRECTION ( 'NONE',  ( -1.365923996832131609E-16, 1.000000000000000000, 0.0000000000000000000 ) ) ;
#143 = EDGE_LOOP ( 'NONE', ( #34, #172, #26, #3 ) ) ;
#144 = DIRECTION ( 'NONE',  ( 0.0000000000000000000, 1.000000000000000000, 0.0000000000000000000 ) ) ;
#145 = CARTESIAN_POINT ( 'NONE',  ( 0.0000000000000000000, 0.0000000000000000000, -3.000000000000000000 ) ) ;
#146 = CARTESIAN_POINT ( 'NONE',  ( 6.349999999999998757, -6.349999999999998757, 3.000000000000000000 ) ) ;
#147 = CALENDAR_DATE ( 2020, 19, 10 ) ;
#148 = DIRECTION ( 'NONE',  ( -1.000000000000000000, 0.0000000000000000000, 0.0000000000000000000 ) ) ;
#149 = APPLICATION_PROTOCOL_DEFINITION ( 'international standard', 'config_control_design', 1994, #133 ) ;
#150 = PERSON_AND_ORGANIZATION_ROLE ( 'design_owner' ) ;
#151 = DATE_AND_TIME ( #147, #192 ) ;
#152 = LINE ( 'NONE', #224, #97 ) ;
#153 = DIRECTION ( 'NONE',  ( 1.000000000000000000, 0.0000000000000000000, 0.0000000000000000000 ) ) ;
#154 = EDGE_CURVE ( 'NONE', #19, #21, #136, .T. ) ;
#155 = VERTEX_POINT ( 'NONE', #128 ) ;
#156 = DATE_AND_TIME ( #187, #158 ) ;
#157 = ORIENTED_EDGE ( 'NONE', *, *, #53, .T. ) ;
#158 = LOCAL_TIME ( 11, 36, 12.00000000000000000, #91 ) ;
#159 = VECTOR ( 'NONE', #194, 1000.000000000000000 ) ;
#160 = VERTEX_POINT ( 'NONE', #72 ) ;
#161 = CALENDAR_DATE ( 2020, 19, 10 ) ;
#162 = PERSON_AND_ORGANIZATION ( #176, #1 ) ;
#163 = PLANE ( 'NONE',  #118 ) ;
#164 = ORIENTED_EDGE ( 'NONE', *, *, #203, .F. ) ;
#165 = PRODUCT_RELATED_PRODUCT_CATEGORY ( 'detail', '', ( #141 ) ) ;
#166 = CARTESIAN_POINT ( 'NONE',  ( -6.350000000000000533, -6.350000000000000533, -3.000000000000000000 ) ) ;
#167 = AXIS2_PLACEMENT_3D ( 'NONE', #56, #208, #153 ) ;
#168 = FACE_OUTER_BOUND ( 'NONE', #195, .T. ) ;
#169 = ADVANCED_FACE ( 'NONE', ( #108 ), #111, .F. ) ;
#170 = SHAPE_DEFINITION_REPRESENTATION ( #198, #66 ) ;
#171 = CLOSED_SHELL ( 'NONE', ( #169, #117, #186, #131, #43, #134 ) ) ;
#172 = ORIENTED_EDGE ( 'NONE', *, *, #190, .F. ) ;
#173 = EDGE_CURVE ( 'NONE', #227, #214, #85, .T. ) ;
#174 = PRODUCT_DEFINITION_FORMATION_WITH_SPECIFIED_SOURCE ( 'ANY', '', #141, .NOT_KNOWN. ) ;
#175 = DIRECTION ( 'NONE',  ( -1.000000000000000000, -1.365923996832131609E-16, 0.0000000000000000000 ) ) ;
#176 = PERSON ( 'UNSPECIFIED', 'UNSPECIFIED', 'UNSPECIFIED', ('UNSPECIFIED'), ('UNSPECIFIED'), ('UNSPECIFIED') ) ;
#177 = AXIS2_PLACEMENT_3D ( 'NONE', #126, #30, #29 ) ;
#178 = CARTESIAN_POINT ( 'NONE',  ( 6.349999999999998757, -6.349999999999998757, 3.000000000000000000 ) ) ;
#179 = ORIENTED_EDGE ( 'NONE', *, *, #36, .T. ) ;
#180 =( NAMED_UNIT ( * ) SI_UNIT ( $, .STERADIAN. ) SOLID_ANGLE_UNIT ( ) );
#181 = DIRECTION ( 'NONE',  ( -1.000000000000000000, -1.365923996832131609E-16, 0.0000000000000000000 ) ) ;
#182 = DIRECTION ( 'NONE',  ( 0.0000000000000000000, -0.0000000000000000000, 1.000000000000000000 ) ) ;
#183 = CARTESIAN_POINT ( 'NONE',  ( 6.349999999999998757, 6.350000000000000533, -3.000000000000000000 ) ) ;
#184 = VECTOR ( 'NONE', #70, 1000.000000000000000 ) ;
#185 = APPROVAL_STATUS ( 'not_yet_approved' ) ;
#186 = ADVANCED_FACE ( 'NONE', ( #71 ), #22, .F. ) ;
#187 = CALENDAR_DATE ( 2020, 19, 10 ) ;
#188 = VECTOR ( 'NONE', #67, 1000.000000000000000 ) ;
#189 = CARTESIAN_POINT ( 'NONE',  ( 6.349999999999998757, 6.350000000000000533, 3.000000000000000000 ) ) ;
#190 = EDGE_CURVE ( 'NONE', #21, #223, #211, .T. ) ;
#191 = CC_DESIGN_PERSON_AND_ORGANIZATION_ASSIGNMENT ( #107, #129, ( #39 ) ) ;
#192 = LOCAL_TIME ( 11, 36, 12.00000000000000000, #199 ) ;
#193 = ORIENTED_EDGE ( 'NONE', *, *, #105, .F. ) ;
#194 = DIRECTION ( 'NONE',  ( -0.0000000000000000000, -0.0000000000000000000, -1.000000000000000000 ) ) ;
#195 = EDGE_LOOP ( 'NONE', ( #109, #32, #20, #73 ) ) ;
#196 = PERSON_AND_ORGANIZATION ( #176, #1 ) ;
#197 = APPROVAL ( #185, 'UNSPECIFIED' ) ;
#198 = PRODUCT_DEFINITION_SHAPE ( 'NONE', 'NONE',  #39 ) ;
#199 = COORDINATED_UNIVERSAL_TIME_OFFSET ( 5, 0, .BEHIND. ) ;
#200 = LINE ( 'NONE', #59, #100 ) ;
#201 = CC_DESIGN_PERSON_AND_ORGANIZATION_ASSIGNMENT ( #52, #150, ( #141 ) ) ;
#202 = DIRECTION ( 'NONE',  ( -0.0000000000000000000, -0.0000000000000000000, -1.000000000000000000 ) ) ;
#203 = EDGE_CURVE ( 'NONE', #205, #214, #121, .T. ) ;
#204 =( NAMED_UNIT ( * ) PLANE_ANGLE_UNIT ( ) SI_UNIT ( $, .RADIAN. ) );
#205 = VERTEX_POINT ( 'NONE', #222 ) ;
#206 = CARTESIAN_POINT ( 'NONE',  ( 6.349999999999998757, -6.349999999999998757, 3.000000000000000000 ) ) ;
#207 = APPROVAL_PERSON_ORGANIZATION ( #114, #49, #80 ) ;
#208 = DIRECTION ( 'NONE',  ( 0.0000000000000000000, 0.0000000000000000000, 1.000000000000000000 ) ) ;
#209 = DATE_TIME_ROLE ( 'classification_date' ) ;
#210 = DATE_AND_TIME ( #161, #137 ) ;
#211 = LINE ( 'NONE', #4, #62 ) ;
#212 = EDGE_LOOP ( 'NONE', ( #112, #164, #48, #235 ) ) ;
#213 = DIRECTION ( 'NONE',  ( 0.0000000000000000000, -0.0000000000000000000, 1.000000000000000000 ) ) ;
#214 = VERTEX_POINT ( 'NONE', #166 ) ;
#215 = LOCAL_TIME ( 11, 36, 12.00000000000000000, #61 ) ;
#216 = MANIFOLD_SOLID_BREP ( 'Boss-Extrude1', #171 ) ;
#217 = COORDINATED_UNIVERSAL_TIME_OFFSET ( 5, 0, .BEHIND. ) ;
#218 = ORIENTED_EDGE ( 'NONE', *, *, #51, .F. ) ;
#219 = CARTESIAN_POINT ( 'NONE',  ( 6.349999999999998757, -6.349999999999998757, 3.000000000000000000 ) ) ;
#220 = DESIGN_CONTEXT ( 'detailed design', #133, 'design' ) ;
#221 = DIRECTION ( 'NONE',  ( 1.000000000000000000, 0.0000000000000000000, -0.0000000000000000000 ) ) ;
#222 = CARTESIAN_POINT ( 'NONE',  ( -6.350000000000000533, -6.350000000000000533, 3.000000000000000000 ) ) ;
#223 = VERTEX_POINT ( 'NONE', #93 ) ;
#224 = CARTESIAN_POINT ( 'NONE',  ( -6.350000000000000533, -6.350000000000000533, 3.000000000000000000 ) ) ;
#225 = CARTESIAN_POINT ( 'NONE',  ( -6.350000000000000533, 6.349999999999998757, -3.000000000000000000 ) ) ;
#226 = APPLICATION_PROTOCOL_DEFINITION ( 'international standard', 'config_control_design', 1994, #99 ) ;
#227 = VERTEX_POINT ( 'NONE', #225 ) ;
#228 = PERSON_AND_ORGANIZATION_ROLE ( 'creator' ) ;
#229 = EDGE_CURVE ( 'NONE', #160, #205, #152, .T. ) ;
#230 = PLANE ( 'NONE',  #102 ) ;
#231 = EDGE_CURVE ( 'NONE', #223, #227, #46, .T. ) ;
#232 = EDGE_CURVE ( 'NONE', #155, #223, #200, .T. ) ;
#233 = CC_DESIGN_APPROVAL ( #24, ( #174 ) ) ;
#234 = FACE_OUTER_BOUND ( 'NONE', #8, .T. ) ;
#235 = ORIENTED_EDGE ( 'NONE', *, *, #89, .T. ) ;
#236 = PLANE ( 'NONE',  #177 ) ;
#237 = PERSON_AND_ORGANIZATION ( #176, #1 ) ;
ENDSEC;
END-ISO-10303-21;
