ISO-10303-21;
HEADER;
FILE_DESCRIPTION (( 'STEP AP214' ),
    '1' );
FILE_NAME ('4589-E0W.STEP',
    '2009-12-21T17:11:44',
    ( ' ' ),
    ( ' ' ),
    'SwSTEP 2.0',
    'SolidWorks 2009',
    '' );
FILE_SCHEMA (( 'AUTOMOTIVE_DESIGN' ));
ENDSEC;

DATA;
#1 = DIRECTION ( 'NONE',  ( 1.000000000000000000, 0.0000000000000000000, 0.0000000000000000000 ) ) ;
#2 = CIRCLE ( 'NONE', #4, 12.69999999999999900 ) ;
#3 = DIRECTION ( 'NONE',  ( -0.0000000000000000000, -0.0000000000000000000, 1.000000000000000000 ) ) ;
#4 = AXIS2_PLACEMENT_3D ( 'NONE', #5, #3, #1 ) ;
#5 = CARTESIAN_POINT ( 'NONE',  ( 0.0000000000000000000, 0.0000000000000000000, -1.310000000000000500 ) ) ;
#6 = CARTESIAN_POINT ( 'NONE',  ( 0.0000000000000000000, 0.0000000000000000000, -127.4600000000000200 ) ) ;
#7 = DIRECTION ( 'NONE',  ( -1.224606353822377300E-016, -1.000000000000000000, 0.0000000000000000000 ) ) ;
#8 = DIRECTION ( 'NONE',  ( -1.000000000000000000, 1.224606353822377300E-016, 0.0000000000000000000 ) ) ;
#9 = AXIS2_PLACEMENT_3D ( 'NONE', #6, #8, #7 ) ;
#10 = CIRCLE ( 'NONE', #9, 128.7700000000000400 ) ;
#11 = SURFACE_STYLE_USAGE ( .BOTH. , #12 ) ;
#12 = SURFACE_SIDE_STYLE ('',( #21 ) ) ;
#13 = STYLED_ITEM ( 'NONE', ( #14 ), #155 ) ;
#14 = PRESENTATION_STYLE_ASSIGNMENT (( #11 ) ) ;
#15 =( NAMED_UNIT ( * ) PLANE_ANGLE_UNIT ( ) SI_UNIT ( $, .RADIAN. ) );
#16 = DIRECTION ( 'NONE',  ( 0.0000000000000000000, 1.000000000000000000, 0.0000000000000000000 ) ) ;
#17 = PRESENTATION_LAYER_ASSIGNMENT (  '', '', ( #13 ) ) ;
#18 = MECHANICAL_DESIGN_GEOMETRIC_PRESENTATION_REPRESENTATION (  '', ( #13 ), #25 ) ;
#19 =( LENGTH_UNIT ( ) NAMED_UNIT ( * ) SI_UNIT ( .MILLI., .METRE. ) );
#20 = FILL_AREA_STYLE_COLOUR ( '', #23 ) ;
#21 = SURFACE_STYLE_FILL_AREA ( #22 ) ;
#22 = FILL_AREA_STYLE ('',( #20 ) ) ;
#23 = COLOUR_RGB ( '',0.9568627450980391500, 0.9490196078431372100, 0.9607843137254902200 ) ;
#24 = FACE_OUTER_BOUND ( 'NONE', #142, .T. ) ;
#25 =( GEOMETRIC_REPRESENTATION_CONTEXT ( 3 ) GLOBAL_UNCERTAINTY_ASSIGNED_CONTEXT ( ( #27 ) ) GLOBAL_UNIT_ASSIGNED_CONTEXT ( ( #19, #15, #26 ) ) REPRESENTATION_CONTEXT ( 'NONE', 'WORKASPACE' ) );
#26 =( NAMED_UNIT ( * ) SI_UNIT ( $, .STERADIAN. ) SOLID_ANGLE_UNIT ( ) );
#27 = UNCERTAINTY_MEASURE_WITH_UNIT (LENGTH_MEASURE( 1.000000000000000100E-005 ), #19, 'distance_accuracy_value', 'NONE');
#28 = DIRECTION ( 'NONE',  ( -1.000000000000000000, 0.0000000000000000000, 0.0000000000000000000 ) ) ;
#29 = CARTESIAN_POINT ( 'NONE',  ( 0.0000000000000000000, 0.0000000000000000000, -127.4600000000000200 ) ) ;
#30 = AXIS2_PLACEMENT_3D ( 'NONE', #29, #28, #16 ) ;
#31 = SPHERICAL_SURFACE ( 'NONE', #30, 128.7700000000000400 ) ;
#32 = FACE_OUTER_BOUND ( 'NONE', #131, .T. ) ;
#33 = AXIS2_PLACEMENT_3D ( 'NONE', #92, #88, #35 ) ;
#34 = FILL_AREA_STYLE ('',( #53 ) ) ;
#35 = DIRECTION ( 'NONE',  ( 1.000000000000000000, 0.0000000000000000000, 0.0000000000000000000 ) ) ;
#36 =( NAMED_UNIT ( * ) PLANE_ANGLE_UNIT ( ) SI_UNIT ( $, .RADIAN. ) );
#37 =( LENGTH_UNIT ( ) NAMED_UNIT ( * ) SI_UNIT ( .MILLI., .METRE. ) );
#38 =( GEOMETRIC_REPRESENTATION_CONTEXT ( 3 ) GLOBAL_UNCERTAINTY_ASSIGNED_CONTEXT ( ( #58 ) ) GLOBAL_UNIT_ASSIGNED_CONTEXT ( ( #47, #36, #59 ) ) REPRESENTATION_CONTEXT ( 'NONE', 'WORKASPACE' ) );
#39 = AXIS2_PLACEMENT_3D ( 'NONE', #77, #94, #93 ) ;
#40 = CARTESIAN_POINT ( 'NONE',  ( 0.0000000000000000000, 0.0000000000000000000, 0.0000000000000000000 ) ) ;
#41 = CARTESIAN_POINT ( 'NONE',  ( -1.555250069354430900E-015, -12.70000000000009700, 0.6821979677264634600 ) ) ;
#42 = UNCERTAINTY_MEASURE_WITH_UNIT (LENGTH_MEASURE( 1.000000000000000100E-005 ), #37, 'distance_accuracy_value', 'NONE');
#43 = ADVANCED_BREP_SHAPE_REPRESENTATION ( '4589-E0W', ( #122, #83 ), #38 ) ;
#44 = DIRECTION ( 'NONE',  ( 0.0000000000000000000, 0.0000000000000000000, 1.000000000000000000 ) ) ;
#45 = DIRECTION ( 'NONE',  ( 1.000000000000000000, 0.0000000000000000000, 0.0000000000000000000 ) ) ;
#46 = CIRCLE ( 'NONE', #55, 12.69999999999999900 ) ;
#47 =( LENGTH_UNIT ( ) NAMED_UNIT ( * ) SI_UNIT ( .MILLI., .METRE. ) );
#48 = MECHANICAL_DESIGN_GEOMETRIC_PRESENTATION_REPRESENTATION (  '', ( #50 ), #73 ) ;
#49 = PRESENTATION_LAYER_ASSIGNMENT (  '', '', ( #50 ) ) ;
#50 = STYLED_ITEM ( 'NONE', ( #51 ), #43 ) ;
#51 = PRESENTATION_STYLE_ASSIGNMENT (( #52 ) ) ;
#52 = SURFACE_STYLE_USAGE ( .BOTH. , #64 ) ;
#53 = FILL_AREA_STYLE_COLOUR ( '', #91 ) ;
#54 = DIRECTION ( 'NONE',  ( -0.0000000000000000000, -0.0000000000000000000, 1.000000000000000000 ) ) ;
#55 = AXIS2_PLACEMENT_3D ( 'NONE', #82, #74, #71 ) ;
#56 = CIRCLE ( 'NONE', #33, 12.69999999999999900 ) ;
#57 = CARTESIAN_POINT ( 'NONE',  ( -12.69999999999999900, 1.555250069354419100E-015, 0.6821979677264768900 ) ) ;
#58 = UNCERTAINTY_MEASURE_WITH_UNIT (LENGTH_MEASURE( 1.000000000000000100E-005 ), #47, 'distance_accuracy_value', 'NONE');
#59 =( NAMED_UNIT ( * ) SI_UNIT ( $, .STERADIAN. ) SOLID_ANGLE_UNIT ( ) );
#60 = CARTESIAN_POINT ( 'NONE',  ( -12.69999999999999900, 1.555250069354419100E-015, 4.308132045400366600 ) ) ;
#61 =( NAMED_UNIT ( * ) SI_UNIT ( $, .STERADIAN. ) SOLID_ANGLE_UNIT ( ) );
#62 =( NAMED_UNIT ( * ) PLANE_ANGLE_UNIT ( ) SI_UNIT ( $, .RADIAN. ) );
#63 = LINE ( 'NONE', #60, #85 ) ;
#64 = SURFACE_SIDE_STYLE ('',( #65 ) ) ;
#65 = SURFACE_STYLE_FILL_AREA ( #66 ) ;
#66 = FILL_AREA_STYLE ('',( #67 ) ) ;
#67 = FILL_AREA_STYLE_COLOUR ( '', #68 ) ;
#68 = COLOUR_RGB ( '',0.7960784313725489700, 0.8235294117647058400, 0.9372549019607843100 ) ;
#69 = UNCERTAINTY_MEASURE_WITH_UNIT (LENGTH_MEASURE( 1.000000000000000100E-005 ), #89, 'distance_accuracy_value', 'NONE');
#70 = CARTESIAN_POINT ( 'NONE',  ( 0.0000000000000000000, 7.884628009085378900E-015, 1.310000000000033400 ) ) ;
#71 = DIRECTION ( 'NONE',  ( 1.000000000000000000, 0.0000000000000000000, 0.0000000000000000000 ) ) ;
#72 = STYLED_ITEM ( 'NONE', ( #75 ), #165 ) ;
#73 =( GEOMETRIC_REPRESENTATION_CONTEXT ( 3 ) GLOBAL_UNCERTAINTY_ASSIGNED_CONTEXT ( ( #69 ) ) GLOBAL_UNIT_ASSIGNED_CONTEXT ( ( #89, #62, #61 ) ) REPRESENTATION_CONTEXT ( 'NONE', 'WORKASPACE' ) );
#74 = DIRECTION ( 'NONE',  ( -0.0000000000000000000, -0.0000000000000000000, 1.000000000000000000 ) ) ;
#75 = PRESENTATION_STYLE_ASSIGNMENT (( #76 ) ) ;
#76 = SURFACE_STYLE_USAGE ( .BOTH. , #80 ) ;
#77 = CARTESIAN_POINT ( 'NONE',  ( 0.0000000000000000000, 0.0000000000000000000, -127.4600000000000200 ) ) ;
#78 = PRESENTATION_LAYER_ASSIGNMENT (  '', '', ( #72 ) ) ;
#79 =( GEOMETRIC_REPRESENTATION_CONTEXT ( 3 ) GLOBAL_UNCERTAINTY_ASSIGNED_CONTEXT ( ( #42 ) ) GLOBAL_UNIT_ASSIGNED_CONTEXT ( ( #37, #87, #86 ) ) REPRESENTATION_CONTEXT ( 'NONE', 'WORKASPACE' ) );
#80 = SURFACE_SIDE_STYLE ('',( #84 ) ) ;
#81 = MECHANICAL_DESIGN_GEOMETRIC_PRESENTATION_REPRESENTATION (  '', ( #72 ), #79 ) ;
#82 = CARTESIAN_POINT ( 'NONE',  ( 0.0000000000000000000, 0.0000000000000000000, 0.6821979677264768900 ) ) ;
#83 = AXIS2_PLACEMENT_3D ( 'NONE', #40, #44, #45 ) ;
#84 = SURFACE_STYLE_FILL_AREA ( #34 ) ;
#85 = VECTOR ( 'NONE', #54, 1000.000000000000000 ) ;
#86 =( NAMED_UNIT ( * ) SI_UNIT ( $, .STERADIAN. ) SOLID_ANGLE_UNIT ( ) );
#87 =( NAMED_UNIT ( * ) PLANE_ANGLE_UNIT ( ) SI_UNIT ( $, .RADIAN. ) );
#88 = DIRECTION ( 'NONE',  ( -0.0000000000000000000, -0.0000000000000000000, 1.000000000000000000 ) ) ;
#89 =( LENGTH_UNIT ( ) NAMED_UNIT ( * ) SI_UNIT ( .MILLI., .METRE. ) );
#90 = SPHERICAL_SURFACE ( 'NONE', #39, 128.7700000000000400 ) ;
#91 = COLOUR_RGB ( '',0.9568627450980391500, 0.9490196078431372100, 0.9607843137254902200 ) ;
#92 = CARTESIAN_POINT ( 'NONE',  ( 0.0000000000000000000, 0.0000000000000000000, 0.6821979677264768900 ) ) ;
#93 = DIRECTION ( 'NONE',  ( 0.0000000000000000000, 1.000000000000000000, 0.0000000000000000000 ) ) ;
#94 = DIRECTION ( 'NONE',  ( -1.000000000000000000, 0.0000000000000000000, 0.0000000000000000000 ) ) ;
#95 = APPLICATION_PROTOCOL_DEFINITION ( 'draft international standard', 'automotive_design', 1998, #98 ) ;
#96 = APPLICATION_PROTOCOL_DEFINITION ( 'draft international standard', 'automotive_design', 1998, #97 ) ;
#97 = APPLICATION_CONTEXT ( 'automotive_design' ) ;
#98 = APPLICATION_CONTEXT ( 'automotive_design' ) ;
#99 = PRODUCT ( '4589-E0W', '4589-E0W', '', ( #100 ) ) ;
#100 = PRODUCT_CONTEXT ( 'NONE', #98, 'mechanical' ) ;
#101 = PRODUCT_DEFINITION_CONTEXT ( 'detailed design', #97, 'design' ) ;
#102 = SHAPE_DEFINITION_REPRESENTATION ( #103, #43 ) ;
#103 = PRODUCT_DEFINITION_SHAPE ( 'NONE', 'NONE',  #104 ) ;
#104 = PRODUCT_DEFINITION ( 'UNKNOWN', '', #105, #101 ) ;
#105 = PRODUCT_DEFINITION_FORMATION_WITH_SPECIFIED_SOURCE ( 'ANY', '', #99, .NOT_KNOWN. ) ;
#106 = PRODUCT_RELATED_PRODUCT_CATEGORY ( 'part', '', ( #99 ) ) ;
#107 = ORIENTED_EDGE ( 'NONE', *, *, #114, .F. ) ;
#108 = DIRECTION ( 'NONE',  ( 1.000000000000000000, 0.0000000000000000000, 0.0000000000000000000 ) ) ;
#109 = EDGE_LOOP ( 'NONE', ( #116, #159, #107, #158, #166 ) ) ;
#110 = CARTESIAN_POINT ( 'NONE',  ( 0.0000000000000000000, 0.0000000000000000000, -127.4600000000000200 ) ) ;
#111 =( NAMED_UNIT ( * ) PLANE_ANGLE_UNIT ( ) SI_UNIT ( $, .RADIAN. ) );
#112 = DIRECTION ( 'NONE',  ( 0.0000000000000000000, 0.0000000000000000000, -1.000000000000000000 ) ) ;
#113 =( NAMED_UNIT ( * ) SI_UNIT ( $, .STERADIAN. ) SOLID_ANGLE_UNIT ( ) );
#114 = EDGE_CURVE ( 'NONE', #117, #161, #192, .T. ) ;
#115 = VERTEX_POINT ( 'NONE', #170 ) ;
#116 = ORIENTED_EDGE ( 'NONE', *, *, #119, .T. ) ;
#117 = VERTEX_POINT ( 'NONE', #169 ) ;
#118 = AXIS2_PLACEMENT_3D ( 'NONE', #110, #108, #112 ) ;
#119 = EDGE_CURVE ( 'NONE', #120, #115, #188, .T. ) ;
#120 = VERTEX_POINT ( 'NONE', #184 ) ;
#121 = ADVANCED_FACE ( 'NONE', ( #183 ), #229, .T. ) ;
#122 = MANIFOLD_SOLID_BREP ( 'NONE', #162 ) ;
#123 = UNCERTAINTY_MEASURE_WITH_UNIT (LENGTH_MEASURE( 1.000000000000000100E-005 ), #175, 'distance_accuracy_value', 'NONE');
#124 = AXIS2_PLACEMENT_3D ( 'NONE', #125, #128, #129 ) ;
#125 = CARTESIAN_POINT ( 'NONE',  ( 0.0000000000000000000, 4.812861920649097600E-016, -1.310000000000000100 ) ) ;
#126 = PLANE ( 'NONE',  #124 ) ;
#127 =( GEOMETRIC_REPRESENTATION_CONTEXT ( 3 ) GLOBAL_UNCERTAINTY_ASSIGNED_CONTEXT ( ( #123 ) ) GLOBAL_UNIT_ASSIGNED_CONTEXT ( ( #175, #111, #113 ) ) REPRESENTATION_CONTEXT ( 'NONE', 'WORKASPACE' ) );
#128 = DIRECTION ( 'NONE',  ( 0.0000000000000000000, -0.0000000000000000000, 1.000000000000000000 ) ) ;
#129 = DIRECTION ( 'NONE',  ( 1.000000000000000000, 0.0000000000000000000, 0.0000000000000000000 ) ) ;
#130 = ORIENTED_EDGE ( 'NONE', *, *, #141, .T. ) ;
#131 = EDGE_LOOP ( 'NONE', ( #135, #130, #168, #140 ) ) ;
#132 = EDGE_LOOP ( 'NONE', ( #149, #147, #134, #163, #150 ) ) ;
#133 = ORIENTED_EDGE ( 'NONE', *, *, #148, .F. ) ;
#134 = ORIENTED_EDGE ( 'NONE', *, *, #143, .T. ) ;
#135 = ORIENTED_EDGE ( 'NONE', *, *, #114, .T. ) ;
#136 = ORIENTED_EDGE ( 'NONE', *, *, #119, .F. ) ;
#137 = ADVANCED_FACE ( 'NONE', ( #203 ), #250, .T. ) ;
#138 = ADVANCED_FACE ( 'NONE', ( #243 ), #126, .F. ) ;
#139 = ORIENTED_EDGE ( 'NONE', *, *, #152, .F. ) ;
#140 = ORIENTED_EDGE ( 'NONE', *, *, #145, .F. ) ;
#141 = EDGE_CURVE ( 'NONE', #161, #167, #255, .T. ) ;
#142 = EDGE_LOOP ( 'NONE', ( #139, #153, #154, #151 ) ) ;
#143 = EDGE_CURVE ( 'NONE', #120, #144, #256, .T. ) ;
#144 = VERTEX_POINT ( 'NONE', #261 ) ;
#145 = EDGE_CURVE ( 'NONE', #117, #164, #260, .T. ) ;
#146 = EDGE_LOOP ( 'NONE', ( #136, #133 ) ) ;
#147 = ORIENTED_EDGE ( 'NONE', *, *, #148, .T. ) ;
#148 = EDGE_CURVE ( 'NONE', #115, #120, #2, .T. ) ;
#149 = ORIENTED_EDGE ( 'NONE', *, *, #160, .F. ) ;
#150 = ORIENTED_EDGE ( 'NONE', *, *, #141, .F. ) ;
#151 = ORIENTED_EDGE ( 'NONE', *, *, #145, .T. ) ;
#152 = EDGE_CURVE ( 'NONE', #167, #164, #10, .T. ) ;
#153 = ORIENTED_EDGE ( 'NONE', *, *, #156, .T. ) ;
#154 = ORIENTED_EDGE ( 'NONE', *, *, #157, .T. ) ;
#155 = ADVANCED_FACE ( 'NONE', ( #24 ), #31, .T. ) ;
#156 = EDGE_CURVE ( 'NONE', #167, #144, #56, .T. ) ;
#157 = EDGE_CURVE ( 'NONE', #144, #117, #46, .T. ) ;
#158 = ORIENTED_EDGE ( 'NONE', *, *, #157, .F. ) ;
#159 = ORIENTED_EDGE ( 'NONE', *, *, #160, .T. ) ;
#160 = EDGE_CURVE ( 'NONE', #115, #161, #63, .T. ) ;
#161 = VERTEX_POINT ( 'NONE', #57 ) ;
#162 = CLOSED_SHELL ( 'NONE', ( #121, #165, #155, #137, #138 ) ) ;
#163 = ORIENTED_EDGE ( 'NONE', *, *, #156, .F. ) ;
#164 = VERTEX_POINT ( 'NONE', #70 ) ;
#165 = ADVANCED_FACE ( 'NONE', ( #32 ), #90, .T. ) ;
#166 = ORIENTED_EDGE ( 'NONE', *, *, #143, .F. ) ;
#167 = VERTEX_POINT ( 'NONE', #41 ) ;
#168 = ORIENTED_EDGE ( 'NONE', *, *, #152, .T. ) ;
#169 = CARTESIAN_POINT ( 'NONE',  ( 0.0000000000000000000, 12.70000000000009700, 0.6821979677264634600 ) ) ;
#170 = CARTESIAN_POINT ( 'NONE',  ( -12.69999999999999900, 1.555250069354419100E-015, -1.310000000000000500 ) ) ;
#171 = DIRECTION ( 'NONE',  ( 1.000000000000000000, 0.0000000000000000000, 0.0000000000000000000 ) ) ;
#172 = FILL_AREA_STYLE ('',( #173 ) ) ;
#173 = FILL_AREA_STYLE_COLOUR ( '', #174 ) ;
#174 = COLOUR_RGB ( '',0.9568627450980391500, 0.9490196078431372100, 0.9607843137254902200 ) ;
#175 =( LENGTH_UNIT ( ) NAMED_UNIT ( * ) SI_UNIT ( .MILLI., .METRE. ) );
#176 = MECHANICAL_DESIGN_GEOMETRIC_PRESENTATION_REPRESENTATION (  '', ( #178 ), #127 ) ;
#177 = PRESENTATION_LAYER_ASSIGNMENT (  '', '', ( #178 ) ) ;
#178 = STYLED_ITEM ( 'NONE', ( #179 ), #121 ) ;
#179 = PRESENTATION_STYLE_ASSIGNMENT (( #180 ) ) ;
#180 = SURFACE_STYLE_USAGE ( .BOTH. , #181 ) ;
#181 = SURFACE_SIDE_STYLE ('',( #182 ) ) ;
#182 = SURFACE_STYLE_FILL_AREA ( #172 ) ;
#183 = FACE_OUTER_BOUND ( 'NONE', #109, .T. ) ;
#184 = CARTESIAN_POINT ( 'NONE',  ( 12.69999999999999900, 0.0000000000000000000, -1.310000000000000500 ) ) ;
#185 = DIRECTION ( 'NONE',  ( 1.000000000000000000, 0.0000000000000000000, 0.0000000000000000000 ) ) ;
#186 = DIRECTION ( 'NONE',  ( -0.0000000000000000000, -0.0000000000000000000, 1.000000000000000000 ) ) ;
#187 = AXIS2_PLACEMENT_3D ( 'NONE', #193, #186, #185 ) ;
#188 = CIRCLE ( 'NONE', #187, 12.69999999999999900 ) ;
#189 = CARTESIAN_POINT ( 'NONE',  ( 0.0000000000000000000, 0.0000000000000000000, 0.6821979677264768900 ) ) ;
#190 = DIRECTION ( 'NONE',  ( -0.0000000000000000000, -0.0000000000000000000, 1.000000000000000000 ) ) ;
#191 = AXIS2_PLACEMENT_3D ( 'NONE', #189, #190, #171 ) ;
#192 = CIRCLE ( 'NONE', #191, 12.69999999999999900 ) ;
#193 = CARTESIAN_POINT ( 'NONE',  ( 0.0000000000000000000, 0.0000000000000000000, -1.310000000000000500 ) ) ;
#194 =( LENGTH_UNIT ( ) NAMED_UNIT ( * ) SI_UNIT ( .MILLI., .METRE. ) );
#195 = MECHANICAL_DESIGN_GEOMETRIC_PRESENTATION_REPRESENTATION (  '', ( #197 ), #209 ) ;
#196 = PRESENTATION_LAYER_ASSIGNMENT (  '', '', ( #197 ) ) ;
#197 = STYLED_ITEM ( 'NONE', ( #212 ), #138 ) ;
#198 = UNCERTAINTY_MEASURE_WITH_UNIT (LENGTH_MEASURE( 1.000000000000000100E-005 ), #200, 'distance_accuracy_value', 'NONE');
#199 = CARTESIAN_POINT ( 'NONE',  ( 0.0000000000000000000, 0.0000000000000000000, 4.308132045400366600 ) ) ;
#200 =( LENGTH_UNIT ( ) NAMED_UNIT ( * ) SI_UNIT ( .MILLI., .METRE. ) );
#201 =( NAMED_UNIT ( * ) SI_UNIT ( $, .STERADIAN. ) SOLID_ANGLE_UNIT ( ) );
#202 =( LENGTH_UNIT ( ) NAMED_UNIT ( * ) SI_UNIT ( .MILLI., .METRE. ) );
#203 = FACE_OUTER_BOUND ( 'NONE', #132, .T. ) ;
#204 =( NAMED_UNIT ( * ) PLANE_ANGLE_UNIT ( ) SI_UNIT ( $, .RADIAN. ) );
#205 = UNCERTAINTY_MEASURE_WITH_UNIT (LENGTH_MEASURE( 1.000000000000000100E-005 ), #194, 'distance_accuracy_value', 'NONE');
#206 =( NAMED_UNIT ( * ) SI_UNIT ( $, .STERADIAN. ) SOLID_ANGLE_UNIT ( ) );
#207 =( GEOMETRIC_REPRESENTATION_CONTEXT ( 3 ) GLOBAL_UNCERTAINTY_ASSIGNED_CONTEXT ( ( #198 ) ) GLOBAL_UNIT_ASSIGNED_CONTEXT ( ( #200, #211, #201 ) ) REPRESENTATION_CONTEXT ( 'NONE', 'WORKASPACE' ) );
#208 =( GEOMETRIC_REPRESENTATION_CONTEXT ( 3 ) GLOBAL_UNCERTAINTY_ASSIGNED_CONTEXT ( ( #247 ) ) GLOBAL_UNIT_ASSIGNED_CONTEXT ( ( #202, #204, #249 ) ) REPRESENTATION_CONTEXT ( 'NONE', 'WORKASPACE' ) );
#209 =( GEOMETRIC_REPRESENTATION_CONTEXT ( 3 ) GLOBAL_UNCERTAINTY_ASSIGNED_CONTEXT ( ( #205 ) ) GLOBAL_UNIT_ASSIGNED_CONTEXT ( ( #194, #219, #206 ) ) REPRESENTATION_CONTEXT ( 'NONE', 'WORKASPACE' ) );
#210 = MECHANICAL_DESIGN_GEOMETRIC_PRESENTATION_REPRESENTATION (  '', ( #222 ), #208 ) ;
#211 =( NAMED_UNIT ( * ) PLANE_ANGLE_UNIT ( ) SI_UNIT ( $, .RADIAN. ) );
#212 = PRESENTATION_STYLE_ASSIGNMENT (( #213 ) ) ;
#213 = SURFACE_STYLE_USAGE ( .BOTH. , #214 ) ;
#214 = SURFACE_SIDE_STYLE ('',( #215 ) ) ;
#215 = SURFACE_STYLE_FILL_AREA ( #216 ) ;
#216 = FILL_AREA_STYLE ('',( #217 ) ) ;
#217 = FILL_AREA_STYLE_COLOUR ( '', #242 ) ;
#218 = DIRECTION ( 'NONE',  ( 1.000000000000000000, 0.0000000000000000000, 0.0000000000000000000 ) ) ;
#219 =( NAMED_UNIT ( * ) PLANE_ANGLE_UNIT ( ) SI_UNIT ( $, .RADIAN. ) );
#220 = PRESENTATION_LAYER_ASSIGNMENT (  '', '', ( #222 ) ) ;
#221 = FILL_AREA_STYLE_COLOUR ( '', #244 ) ;
#222 = STYLED_ITEM ( 'NONE', ( #223 ), #122 ) ;
#223 = PRESENTATION_STYLE_ASSIGNMENT (( #237 ) ) ;
#224 = STYLED_ITEM ( 'NONE', ( #225 ), #137 ) ;
#225 = PRESENTATION_STYLE_ASSIGNMENT (( #226 ) ) ;
#226 = SURFACE_STYLE_USAGE ( .BOTH. , #227 ) ;
#227 = SURFACE_SIDE_STYLE ('',( #233 ) ) ;
#228 = AXIS2_PLACEMENT_3D ( 'NONE', #199, #246, #238 ) ;
#229 = CYLINDRICAL_SURFACE ( 'NONE', #228, 12.69999999999999900 ) ;
#230 = MECHANICAL_DESIGN_GEOMETRIC_PRESENTATION_REPRESENTATION (  '', ( #224 ), #207 ) ;
#231 = PRESENTATION_LAYER_ASSIGNMENT (  '', '', ( #224 ) ) ;
#232 = SURFACE_SIDE_STYLE ('',( #245 ) ) ;
#233 = SURFACE_STYLE_FILL_AREA ( #234 ) ;
#234 = FILL_AREA_STYLE ('',( #235 ) ) ;
#235 = FILL_AREA_STYLE_COLOUR ( '', #236 ) ;
#236 = COLOUR_RGB ( '',0.9568627450980391500, 0.9490196078431372100, 0.9607843137254902200 ) ;
#237 = SURFACE_STYLE_USAGE ( .BOTH. , #232 ) ;
#238 = DIRECTION ( 'NONE',  ( 1.000000000000000000, 0.0000000000000000000, 0.0000000000000000000 ) ) ;
#239 = DIRECTION ( 'NONE',  ( -0.0000000000000000000, -0.0000000000000000000, 1.000000000000000000 ) ) ;
#240 = CARTESIAN_POINT ( 'NONE',  ( 0.0000000000000000000, 0.0000000000000000000, 4.308132045400366600 ) ) ;
#241 = AXIS2_PLACEMENT_3D ( 'NONE', #240, #239, #218 ) ;
#242 = COLOUR_RGB ( '',0.9568627450980391500, 0.9490196078431372100, 0.9607843137254902200 ) ;
#243 = FACE_OUTER_BOUND ( 'NONE', #146, .T. ) ;
#244 = COLOUR_RGB ( '',0.7960784313725489700, 0.8235294117647058400, 0.9372549019607843100 ) ;
#245 = SURFACE_STYLE_FILL_AREA ( #248 ) ;
#246 = DIRECTION ( 'NONE',  ( -0.0000000000000000000, -0.0000000000000000000, 1.000000000000000000 ) ) ;
#247 = UNCERTAINTY_MEASURE_WITH_UNIT (LENGTH_MEASURE( 1.000000000000000100E-005 ), #202, 'distance_accuracy_value', 'NONE');
#248 = FILL_AREA_STYLE ('',( #221 ) ) ;
#249 =( NAMED_UNIT ( * ) SI_UNIT ( $, .STERADIAN. ) SOLID_ANGLE_UNIT ( ) );
#250 = CYLINDRICAL_SURFACE ( 'NONE', #241, 12.69999999999999900 ) ;
#251 = DIRECTION ( 'NONE',  ( 1.000000000000000000, 0.0000000000000000000, 0.0000000000000000000 ) ) ;
#252 = DIRECTION ( 'NONE',  ( -0.0000000000000000000, -0.0000000000000000000, 1.000000000000000000 ) ) ;
#253 = CARTESIAN_POINT ( 'NONE',  ( 0.0000000000000000000, 0.0000000000000000000, 0.6821979677264768900 ) ) ;
#254 = AXIS2_PLACEMENT_3D ( 'NONE', #253, #252, #251 ) ;
#255 = CIRCLE ( 'NONE', #254, 12.69999999999999900 ) ;
#256 = LINE ( 'NONE', #259, #258 ) ;
#257 = DIRECTION ( 'NONE',  ( -0.0000000000000000000, -0.0000000000000000000, 1.000000000000000000 ) ) ;
#258 = VECTOR ( 'NONE', #257, 1000.000000000000000 ) ;
#259 = CARTESIAN_POINT ( 'NONE',  ( 12.69999999999999900, 0.0000000000000000000, 4.308132045400366600 ) ) ;
#260 = CIRCLE ( 'NONE', #118, 128.7700000000000400 ) ;
#261 = CARTESIAN_POINT ( 'NONE',  ( 12.69999999999999900, 0.0000000000000000000, 0.6821979677264768900 ) ) ;
ENDSEC;
END-ISO-10303-21;
