ISO-10303-21;
HEADER;
FILE_DESCRIPTION (( 'STEP AP203' ),
    '1' );
FILE_NAME ('Web Model 48921_15998.step',
    '2020-10-21T18:34:40',
    ( '' ),
    ( '' ),
    'SwSTEP 2.0',
    'SolidWorks 2018',
    '' );
FILE_SCHEMA (( 'CONFIG_CONTROL_DESIGN' ));
ENDSEC;

DATA;
#1 = APPLICATION_PROTOCOL_DEFINITION ( 'international standard', 'config_control_design', 1994, #142 ) ;
#2 = AXIS2_PLACEMENT_3D ( 'NONE', #94, #35, #20 ) ;
#3 = PRODUCT_DEFINITION_FORMATION_WITH_SPECIFIED_SOURCE ( 'ANY', '', #14, .NOT_KNOWN. ) ;
#4 = CARTESIAN_POINT ( 'NONE',  ( 20.00000000000000000, 2.449293598294706513E-15, 0.0000000000000000000 ) ) ;
#5 = PRODUCT_DEFINITION_SHAPE ( 'NONE', 'NONE',  #42 ) ;
#6 = ORIENTED_EDGE ( 'NONE', *, *, #11, .F. ) ;
#7 = APPROVAL_ROLE ( '' ) ;
#8 = MECHANICAL_CONTEXT ( 'NONE', #160, 'mechanical' ) ;
#9 = VERTEX_POINT ( 'NONE', #140 ) ;
#10 = ORIENTED_EDGE ( 'NONE', *, *, #11, .T. ) ;
#11 = EDGE_CURVE ( 'NONE', #40, #9, #39, .T. ) ;
#12 = DATE_AND_TIME ( #43, #128 ) ;
#13 = LINE ( 'NONE', #97, #147 ) ;
#14 = PRODUCT ( 'Web Model 48921_15998', 'Web Model 48921_15998', '', ( #8 ) ) ;
#15 = PERSON_AND_ORGANIZATION ( #65, #129 ) ;
#16 = PLANE ( 'NONE',  #31 ) ;
#17 = COORDINATED_UNIVERSAL_TIME_OFFSET ( 5, 0, .BEHIND. ) ;
#18 = VERTEX_POINT ( 'NONE', #122 ) ;
#19 = MANIFOLD_SOLID_BREP ( 'Boss-Extrude1', #93 ) ;
#20 = DIRECTION ( 'NONE',  ( 1.000000000000000000, 0.0000000000000000000, 0.0000000000000000000 ) ) ;
#21 = DATE_AND_TIME ( #114, #117 ) ;
#22 = VECTOR ( 'NONE', #110, 1000.000000000000000 ) ;
#23 = PERSON_AND_ORGANIZATION ( #65, #129 ) ;
#24 = ORIENTED_EDGE ( 'NONE', *, *, #95, .F. ) ;
#25 = FACE_OUTER_BOUND ( 'NONE', #86, .T. ) ;
#26 =( NAMED_UNIT ( * ) SI_UNIT ( $, .STERADIAN. ) SOLID_ANGLE_UNIT ( ) );
#27 = CALENDAR_DATE ( 2020, 21, 10 ) ;
#28 = PERSON_AND_ORGANIZATION ( #65, #129 ) ;
#29 = EDGE_CURVE ( 'NONE', #9, #40, #45, .T. ) ;
#30 = ORIENTED_EDGE ( 'NONE', *, *, #138, .T. ) ;
#31 = AXIS2_PLACEMENT_3D ( 'NONE', #70, #47, #62 ) ;
#32 = CC_DESIGN_DATE_AND_TIME_ASSIGNMENT ( #58, #166, ( #81 ) ) ;
#33 = PLANE ( 'NONE',  #74 ) ;
#34 = ADVANCED_FACE ( 'NONE', ( #37 ), #33, .F. ) ;
#35 = DIRECTION ( 'NONE',  ( 0.0000000000000000000, 0.0000000000000000000, 1.000000000000000000 ) ) ;
#36 = CC_DESIGN_APPROVAL ( #143, ( #42 ) ) ;
#37 = FACE_OUTER_BOUND ( 'NONE', #151, .T. ) ;
#38 = CARTESIAN_POINT ( 'NONE',  ( 0.0000000000000000000, 0.0000000000000000000, 0.0000000000000000000 ) ) ;
#39 = CIRCLE ( 'NONE', #163, 20.00000000000000000 ) ;
#40 = VERTEX_POINT ( 'NONE', #4 ) ;
#41 = APPLICATION_PROTOCOL_DEFINITION ( 'international standard', 'config_control_design', 1994, #160 ) ;
#42 = PRODUCT_DEFINITION ( 'UNKNOWN', '', #3, #146 ) ;
#43 = CALENDAR_DATE ( 2020, 21, 10 ) ;
#44 = LOCAL_TIME ( 14, 34, 40.00000000000000000, #17 ) ;
#45 = CIRCLE ( 'NONE', #136, 20.00000000000000000 ) ;
#46 = DIRECTION ( 'NONE',  ( -0.0000000000000000000, -0.0000000000000000000, -1.000000000000000000 ) ) ;
#47 = DIRECTION ( 'NONE',  ( 0.0000000000000000000, 0.0000000000000000000, 1.000000000000000000 ) ) ;
#48 = APPROVAL_STATUS ( 'not_yet_approved' ) ;
#49 = COORDINATED_UNIVERSAL_TIME_OFFSET ( 5, 0, .BEHIND. ) ;
#50 = DATE_AND_TIME ( #120, #90 ) ;
#51 = ORIENTED_EDGE ( 'NONE', *, *, #29, .T. ) ;
#52 = CYLINDRICAL_SURFACE ( 'NONE', #101, 20.00000000000000000 ) ;
#53 = CIRCLE ( 'NONE', #106, 20.00000000000000000 ) ;
#54 = CC_DESIGN_PERSON_AND_ORGANIZATION_ASSIGNMENT ( #87, #67, ( #42 ) ) ;
#55 = APPROVAL_DATE_TIME ( #12, #143 ) ;
#56 = CC_DESIGN_APPROVAL ( #130, ( #3 ) ) ;
#57 = DIRECTION ( 'NONE',  ( 1.000000000000000000, 0.0000000000000000000, -0.0000000000000000000 ) ) ;
#58 = DATE_AND_TIME ( #164, #44 ) ;
#59 = DATE_TIME_ROLE ( 'creation_date' ) ;
#60 = PERSON_AND_ORGANIZATION_ROLE ( 'classification_officer' ) ;
#61 = DIRECTION ( 'NONE',  ( 1.000000000000000000, 0.0000000000000000000, 0.0000000000000000000 ) ) ;
#62 = DIRECTION ( 'NONE',  ( 1.000000000000000000, 0.0000000000000000000, -0.0000000000000000000 ) ) ;
#63 = DIRECTION ( 'NONE',  ( 0.0000000000000000000, 0.0000000000000000000, 1.000000000000000000 ) ) ;
#64 = AXIS2_PLACEMENT_3D ( 'NONE', #134, #63, #61 ) ;
#65 = PERSON ( 'UNSPECIFIED', 'UNSPECIFIED', 'UNSPECIFIED', ('UNSPECIFIED'), ('UNSPECIFIED'), ('UNSPECIFIED') ) ;
#66 = APPROVAL_STATUS ( 'not_yet_approved' ) ;
#67 = PERSON_AND_ORGANIZATION_ROLE ( 'creator' ) ;
#68 = EDGE_CURVE ( 'NONE', #18, #40, #13, .T. ) ;
#69 = CC_DESIGN_PERSON_AND_ORGANIZATION_ASSIGNMENT ( #23, #60, ( #81 ) ) ;
#70 = CARTESIAN_POINT ( 'NONE',  ( 0.0000000000000000000, 0.0000000000000000000, 2.000000000000000000 ) ) ;
#71 = DIRECTION ( 'NONE',  ( -1.000000000000000000, 0.0000000000000000000, 0.0000000000000000000 ) ) ;
#72 = UNCERTAINTY_MEASURE_WITH_UNIT (LENGTH_MEASURE( 1.000000000000000082E-05 ), #98, 'distance_accuracy_value', 'NONE');
#73 = ORIENTED_EDGE ( 'NONE', *, *, #95, .T. ) ;
#74 = AXIS2_PLACEMENT_3D ( 'NONE', #38, #139, #57 ) ;
#75 = COORDINATED_UNIVERSAL_TIME_OFFSET ( 5, 0, .BEHIND. ) ;
#76 = APPROVAL ( #48, 'UNSPECIFIED' ) ;
#77 = SHAPE_DEFINITION_REPRESENTATION ( #5, #141 ) ;
#78 = DIRECTION ( 'NONE',  ( 0.0000000000000000000, 0.0000000000000000000, 1.000000000000000000 ) ) ;
#79 = ADVANCED_FACE ( 'NONE', ( #125 ), #16, .T. ) ;
#80 = APPROVAL_ROLE ( '' ) ;
#81 = SECURITY_CLASSIFICATION ( '', '', #144 ) ;
#82 = PERSON_AND_ORGANIZATION_ROLE ( 'design_owner' ) ;
#83 = APPROVAL_DATE_TIME ( #171, #130 ) ;
#84 = PERSON_AND_ORGANIZATION ( #65, #129 ) ;
#85 = VERTEX_POINT ( 'NONE', #150 ) ;
#86 = EDGE_LOOP ( 'NONE', ( #123, #24, #124, #51 ) ) ;
#87 = PERSON_AND_ORGANIZATION ( #65, #129 ) ;
#88 = CC_DESIGN_DATE_AND_TIME_ASSIGNMENT ( #21, #59, ( #42 ) ) ;
#89 = CC_DESIGN_APPROVAL ( #76, ( #81 ) ) ;
#90 = LOCAL_TIME ( 14, 34, 40.00000000000000000, #158 ) ;
#91 = LINE ( 'NONE', #168, #22 ) ;
#92 = DIRECTION ( 'NONE',  ( 0.0000000000000000000, 0.0000000000000000000, 1.000000000000000000 ) ) ;
#93 = CLOSED_SHELL ( 'NONE', ( #126, #104, #79, #34 ) ) ;
#94 = CARTESIAN_POINT ( 'NONE',  ( 0.0000000000000000000, 0.0000000000000000000, 0.0000000000000000000 ) ) ;
#95 = EDGE_CURVE ( 'NONE', #85, #18, #53, .T. ) ;
#96 = PRODUCT_RELATED_PRODUCT_CATEGORY ( 'detail', '', ( #14 ) ) ;
#97 = CARTESIAN_POINT ( 'NONE',  ( 20.00000000000000000, 2.449293598294706513E-15, 2.000000000000000000 ) ) ;
#98 =( LENGTH_UNIT ( ) NAMED_UNIT ( * ) SI_UNIT ( .MILLI., .METRE. ) );
#99 = DIRECTION ( 'NONE',  ( -0.0000000000000000000, -0.0000000000000000000, -1.000000000000000000 ) ) ;
#100 = CC_DESIGN_PERSON_AND_ORGANIZATION_ASSIGNMENT ( #172, #82, ( #14 ) ) ;
#101 = AXIS2_PLACEMENT_3D ( 'NONE', #156, #167, #71 ) ;
#102 = DIRECTION ( 'NONE',  ( 1.000000000000000000, 0.0000000000000000000, 0.0000000000000000000 ) ) ;
#103 = COORDINATED_UNIVERSAL_TIME_OFFSET ( 5, 0, .BEHIND. ) ;
#104 = ADVANCED_FACE ( 'NONE', ( #25 ), #52, .T. ) ;
#105 = ORIENTED_EDGE ( 'NONE', *, *, #149, .F. ) ;
#106 = AXIS2_PLACEMENT_3D ( 'NONE', #113, #92, #155 ) ;
#107 = PERSON_AND_ORGANIZATION_ROLE ( 'creator' ) ;
#108 = APPROVAL_PERSON_ORGANIZATION ( #28, #143, #80 ) ;
#109 = CARTESIAN_POINT ( 'NONE',  ( 0.0000000000000000000, 0.0000000000000000000, 2.000000000000000000 ) ) ;
#110 = DIRECTION ( 'NONE',  ( -0.0000000000000000000, -0.0000000000000000000, -1.000000000000000000 ) ) ;
#111 = ORIENTED_EDGE ( 'NONE', *, *, #138, .F. ) ;
#112 =( GEOMETRIC_REPRESENTATION_CONTEXT ( 3 ) GLOBAL_UNCERTAINTY_ASSIGNED_CONTEXT ( ( #72 ) ) GLOBAL_UNIT_ASSIGNED_CONTEXT ( ( #98, #135, #26 ) ) REPRESENTATION_CONTEXT ( 'NONE', 'WORKASPACE' ) );
#113 = CARTESIAN_POINT ( 'NONE',  ( 0.0000000000000000000, 0.0000000000000000000, 2.000000000000000000 ) ) ;
#114 = CALENDAR_DATE ( 2020, 21, 10 ) ;
#115 = CC_DESIGN_SECURITY_CLASSIFICATION ( #81, ( #3 ) ) ;
#116 = FACE_OUTER_BOUND ( 'NONE', #137, .T. ) ;
#117 = LOCAL_TIME ( 14, 34, 40.00000000000000000, #49 ) ;
#118 = APPROVAL_ROLE ( '' ) ;
#119 = CARTESIAN_POINT ( 'NONE',  ( 0.0000000000000000000, 0.0000000000000000000, 0.0000000000000000000 ) ) ;
#120 = CALENDAR_DATE ( 2020, 21, 10 ) ;
#121 = DIRECTION ( 'NONE',  ( 0.0000000000000000000, 0.0000000000000000000, 1.000000000000000000 ) ) ;
#122 = CARTESIAN_POINT ( 'NONE',  ( 20.00000000000000000, 2.449293598294706513E-15, 2.000000000000000000 ) ) ;
#123 = ORIENTED_EDGE ( 'NONE', *, *, #68, .F. ) ;
#124 = ORIENTED_EDGE ( 'NONE', *, *, #149, .T. ) ;
#125 = FACE_OUTER_BOUND ( 'NONE', #165, .T. ) ;
#126 = ADVANCED_FACE ( 'NONE', ( #116 ), #159, .T. ) ;
#127 = PERSON_AND_ORGANIZATION_ROLE ( 'design_supplier' ) ;
#128 = LOCAL_TIME ( 14, 34, 40.00000000000000000, #103 ) ;
#129 = ORGANIZATION ( 'UNSPECIFIED', 'UNSPECIFIED', '' ) ;
#130 = APPROVAL ( #66, 'UNSPECIFIED' ) ;
#131 = APPROVAL_DATE_TIME ( #50, #76 ) ;
#132 = ORIENTED_EDGE ( 'NONE', *, *, #68, .T. ) ;
#133 = CIRCLE ( 'NONE', #64, 20.00000000000000000 ) ;
#134 = CARTESIAN_POINT ( 'NONE',  ( 0.0000000000000000000, 0.0000000000000000000, 2.000000000000000000 ) ) ;
#135 =( NAMED_UNIT ( * ) PLANE_ANGLE_UNIT ( ) SI_UNIT ( $, .RADIAN. ) );
#136 = AXIS2_PLACEMENT_3D ( 'NONE', #119, #121, #102 ) ;
#137 = EDGE_LOOP ( 'NONE', ( #111, #132, #10, #105 ) ) ;
#138 = EDGE_CURVE ( 'NONE', #18, #85, #133, .T. ) ;
#139 = DIRECTION ( 'NONE',  ( 0.0000000000000000000, 0.0000000000000000000, 1.000000000000000000 ) ) ;
#140 = CARTESIAN_POINT ( 'NONE',  ( -20.00000000000000000, 0.0000000000000000000, 0.0000000000000000000 ) ) ;
#141 = ADVANCED_BREP_SHAPE_REPRESENTATION ( 'Web Model 48921_15998', ( #19, #2 ), #112 ) ;
#142 = APPLICATION_CONTEXT ( 'configuration controlled 3d designs of mechanical parts and assemblies' ) ;
#143 = APPROVAL ( #161, 'UNSPECIFIED' ) ;
#144 = SECURITY_CLASSIFICATION_LEVEL ( 'unclassified' ) ;
#145 = CC_DESIGN_PERSON_AND_ORGANIZATION_ASSIGNMENT ( #15, #107, ( #3 ) ) ;
#146 = DESIGN_CONTEXT ( 'detailed design', #142, 'design' ) ;
#147 = VECTOR ( 'NONE', #99, 1000.000000000000000 ) ;
#148 = DIRECTION ( 'NONE',  ( -1.000000000000000000, 0.0000000000000000000, 0.0000000000000000000 ) ) ;
#149 = EDGE_CURVE ( 'NONE', #85, #9, #91, .T. ) ;
#150 = CARTESIAN_POINT ( 'NONE',  ( -20.00000000000000000, 0.0000000000000000000, 2.000000000000000000 ) ) ;
#151 = EDGE_LOOP ( 'NONE', ( #175, #6 ) ) ;
#152 = AXIS2_PLACEMENT_3D ( 'NONE', #109, #46, #148 ) ;
#153 = CC_DESIGN_PERSON_AND_ORGANIZATION_ASSIGNMENT ( #170, #127, ( #3 ) ) ;
#154 = PERSON_AND_ORGANIZATION ( #65, #129 ) ;
#155 = DIRECTION ( 'NONE',  ( 1.000000000000000000, 0.0000000000000000000, 0.0000000000000000000 ) ) ;
#156 = CARTESIAN_POINT ( 'NONE',  ( 0.0000000000000000000, 0.0000000000000000000, 2.000000000000000000 ) ) ;
#157 = CARTESIAN_POINT ( 'NONE',  ( 0.0000000000000000000, 0.0000000000000000000, 0.0000000000000000000 ) ) ;
#158 = COORDINATED_UNIVERSAL_TIME_OFFSET ( 5, 0, .BEHIND. ) ;
#159 = CYLINDRICAL_SURFACE ( 'NONE', #152, 20.00000000000000000 ) ;
#160 = APPLICATION_CONTEXT ( 'configuration controlled 3d designs of mechanical parts and assemblies' ) ;
#161 = APPROVAL_STATUS ( 'not_yet_approved' ) ;
#162 = LOCAL_TIME ( 14, 34, 40.00000000000000000, #75 ) ;
#163 = AXIS2_PLACEMENT_3D ( 'NONE', #157, #78, #174 ) ;
#164 = CALENDAR_DATE ( 2020, 21, 10 ) ;
#165 = EDGE_LOOP ( 'NONE', ( #73, #30 ) ) ;
#166 = DATE_TIME_ROLE ( 'classification_date' ) ;
#167 = DIRECTION ( 'NONE',  ( -0.0000000000000000000, -0.0000000000000000000, -1.000000000000000000 ) ) ;
#168 = CARTESIAN_POINT ( 'NONE',  ( -20.00000000000000000, 0.0000000000000000000, 2.000000000000000000 ) ) ;
#169 = APPROVAL_PERSON_ORGANIZATION ( #154, #130, #7 ) ;
#170 = PERSON_AND_ORGANIZATION ( #65, #129 ) ;
#171 = DATE_AND_TIME ( #27, #162 ) ;
#172 = PERSON_AND_ORGANIZATION ( #65, #129 ) ;
#173 = APPROVAL_PERSON_ORGANIZATION ( #84, #76, #118 ) ;
#174 = DIRECTION ( 'NONE',  ( 1.000000000000000000, 0.0000000000000000000, 0.0000000000000000000 ) ) ;
#175 = ORIENTED_EDGE ( 'NONE', *, *, #29, .F. ) ;
ENDSEC;
END-ISO-10303-21;
