ISO-10303-21;
HEADER;
FILE_DESCRIPTION (( 'STEP AP214' ),
    '1' );
FILE_NAME ('4481-E0W.STEP',
    '2009-12-21T17:06:08',
    ( ' ' ),
    ( ' ' ),
    'SwSTEP 2.0',
    'SolidWorks 2009',
    '' );
FILE_SCHEMA (( 'AUTOMOTIVE_DESIGN' ));
ENDSEC;

DATA;
#1 = CIRCLE ( 'NONE', #2, 6.350000000000001400 ) ;
#2 = AXIS2_PLACEMENT_3D ( 'NONE', #8, #7, #10 ) ;
#3 = AXIS2_PLACEMENT_3D ( 'NONE', #9, #6, #5 ) ;
#4 = SPHERICAL_SURFACE ( 'NONE', #3, 20.60000000000000100 ) ;
#5 = DIRECTION ( 'NONE',  ( 0.0000000000000000000, 1.000000000000000000, 0.0000000000000000000 ) ) ;
#6 = DIRECTION ( 'NONE',  ( -1.000000000000000000, 0.0000000000000000000, 0.0000000000000000000 ) ) ;
#7 = DIRECTION ( 'NONE',  ( -0.0000000000000000000, -0.0000000000000000000, 1.000000000000000000 ) ) ;
#8 = CARTESIAN_POINT ( 'NONE',  ( 0.0000000000000000000, 0.0000000000000000000, 0.3968747508371834300 ) ) ;
#9 = CARTESIAN_POINT ( 'NONE',  ( 0.0000000000000000000, 0.0000000000000000000, -19.20000000000000300 ) ) ;
#10 = DIRECTION ( 'NONE',  ( 1.000000000000000000, 0.0000000000000000000, 0.0000000000000000000 ) ) ;
#11 =( NAMED_UNIT ( * ) SI_UNIT ( $, .STERADIAN. ) SOLID_ANGLE_UNIT ( ) );
#12 = UNCERTAINTY_MEASURE_WITH_UNIT (LENGTH_MEASURE( 1.000000000000000100E-005 ), #165, 'distance_accuracy_value', 'NONE');
#13 =( GEOMETRIC_REPRESENTATION_CONTEXT ( 3 ) GLOBAL_UNCERTAINTY_ASSIGNED_CONTEXT ( ( #12 ) ) GLOBAL_UNIT_ASSIGNED_CONTEXT ( ( #165, #164, #11 ) ) REPRESENTATION_CONTEXT ( 'NONE', 'WORKASPACE' ) );
#14 = PRODUCT_RELATED_PRODUCT_CATEGORY ( 'part', '', ( #27 ) ) ;
#15 = PRODUCT_DEFINITION_FORMATION_WITH_SPECIFIED_SOURCE ( 'ANY', '', #27, .NOT_KNOWN. ) ;
#16 = PRODUCT_DEFINITION ( 'UNKNOWN', '', #15, #17 ) ;
#17 = PRODUCT_DEFINITION_CONTEXT ( 'detailed design', #19, 'design' ) ;
#18 = APPLICATION_PROTOCOL_DEFINITION ( 'draft international standard', 'automotive_design', 1998, #19 ) ;
#19 = APPLICATION_CONTEXT ( 'automotive_design' ) ;
#20 = PRODUCT_DEFINITION_SHAPE ( 'NONE', 'NONE',  #16 ) ;
#21 = CARTESIAN_POINT ( 'NONE',  ( 0.0000000000000000000, 0.0000000000000000000, 0.0000000000000000000 ) ) ;
#22 = SHAPE_DEFINITION_REPRESENTATION ( #20, #128 ) ;
#23 = DIRECTION ( 'NONE',  ( 0.0000000000000000000, 0.0000000000000000000, 1.000000000000000000 ) ) ;
#24 = AXIS2_PLACEMENT_3D ( 'NONE', #21, #23, #26 ) ;
#25 = APPLICATION_CONTEXT ( 'automotive_design' ) ;
#26 = DIRECTION ( 'NONE',  ( 1.000000000000000000, 0.0000000000000000000, 0.0000000000000000000 ) ) ;
#27 = PRODUCT ( '4481-E0W', '4481-E0W', '', ( #28 ) ) ;
#28 = PRODUCT_CONTEXT ( 'NONE', #25, 'mechanical' ) ;
#29 = APPLICATION_PROTOCOL_DEFINITION ( 'draft international standard', 'automotive_design', 1998, #25 ) ;
#30 =( NAMED_UNIT ( * ) PLANE_ANGLE_UNIT ( ) SI_UNIT ( $, .RADIAN. ) );
#31 =( NAMED_UNIT ( * ) PLANE_ANGLE_UNIT ( ) SI_UNIT ( $, .RADIAN. ) );
#32 =( LENGTH_UNIT ( ) NAMED_UNIT ( * ) SI_UNIT ( .MILLI., .METRE. ) );
#33 = MECHANICAL_DESIGN_GEOMETRIC_PRESENTATION_REPRESENTATION (  '', ( #35 ), #44 ) ;
#34 = PRESENTATION_LAYER_ASSIGNMENT (  '', '', ( #35 ) ) ;
#35 = STYLED_ITEM ( 'NONE', ( #36 ), #256 ) ;
#36 = PRESENTATION_STYLE_ASSIGNMENT (( #37 ) ) ;
#37 = SURFACE_STYLE_USAGE ( .BOTH. , #38 ) ;
#38 = SURFACE_SIDE_STYLE ('',( #39 ) ) ;
#39 = SURFACE_STYLE_FILL_AREA ( #40 ) ;
#40 = FILL_AREA_STYLE ('',( #143 ) ) ;
#41 = COLOUR_RGB ( '',0.9568627450980391500, 0.9490196078431372100, 0.9607843137254902200 ) ;
#42 = FACE_OUTER_BOUND ( 'NONE', #257, .T. ) ;
#43 = SURFACE_SIDE_STYLE ('',( #83 ) ) ;
#44 =( GEOMETRIC_REPRESENTATION_CONTEXT ( 3 ) GLOBAL_UNCERTAINTY_ASSIGNED_CONTEXT ( ( #45 ) ) GLOBAL_UNIT_ASSIGNED_CONTEXT ( ( #32, #31, #46 ) ) REPRESENTATION_CONTEXT ( 'NONE', 'WORKASPACE' ) );
#45 = UNCERTAINTY_MEASURE_WITH_UNIT (LENGTH_MEASURE( 1.000000000000000100E-005 ), #32, 'distance_accuracy_value', 'NONE');
#46 =( NAMED_UNIT ( * ) SI_UNIT ( $, .STERADIAN. ) SOLID_ANGLE_UNIT ( ) );
#47 = FILL_AREA_STYLE ('',( #130 ) ) ;
#48 = FACE_OUTER_BOUND ( 'NONE', #237, .T. ) ;
#49 = CARTESIAN_POINT ( 'NONE',  ( 0.0000000000000000000, 0.0000000000000000000, 4.308132045400366600 ) ) ;
#50 = AXIS2_PLACEMENT_3D ( 'NONE', #49, #160, #159 ) ;
#51 = CYLINDRICAL_SURFACE ( 'NONE', #50, 6.350000000000000500 ) ;
#52 = SPHERICAL_SURFACE ( 'NONE', #137, 20.60000000000000100 ) ;
#53 =( GEOMETRIC_REPRESENTATION_CONTEXT ( 3 ) GLOBAL_UNCERTAINTY_ASSIGNED_CONTEXT ( ( #96 ) ) GLOBAL_UNIT_ASSIGNED_CONTEXT ( ( #122, #30, #97 ) ) REPRESENTATION_CONTEXT ( 'NONE', 'WORKASPACE' ) );
#54 = SURFACE_STYLE_USAGE ( .BOTH. , #55 ) ;
#55 = SURFACE_SIDE_STYLE ('',( #56 ) ) ;
#56 = SURFACE_STYLE_FILL_AREA ( #57 ) ;
#57 = FILL_AREA_STYLE ('',( #65 ) ) ;
#58 = COLOUR_RGB ( '',0.7960784313725489700, 0.8235294117647058400, 0.9372549019607843100 ) ;
#59 = CARTESIAN_POINT ( 'NONE',  ( 0.0000000000000000000, 6.350000000000004100, 0.3968747508371829900 ) ) ;
#60 = DIRECTION ( 'NONE',  ( 1.000000000000000000, 0.0000000000000000000, 0.0000000000000000000 ) ) ;
#61 = DIRECTION ( 'NONE',  ( -0.0000000000000000000, -0.0000000000000000000, 1.000000000000000000 ) ) ;
#62 = CARTESIAN_POINT ( 'NONE',  ( 0.0000000000000000000, 0.0000000000000000000, 0.3968747508371834300 ) ) ;
#63 = AXIS2_PLACEMENT_3D ( 'NONE', #62, #61, #60 ) ;
#64 = CIRCLE ( 'NONE', #63, 6.350000000000001400 ) ;
#65 = FILL_AREA_STYLE_COLOUR ( '', #58 ) ;
#66 = CARTESIAN_POINT ( 'NONE',  ( -6.349999999999999600, 7.776250346772096400E-016, -1.400000000000000100 ) ) ;
#67 = CARTESIAN_POINT ( 'NONE',  ( 6.349999999999999600, 0.0000000000000000000, -1.400000000000000100 ) ) ;
#68 = DIRECTION ( 'NONE',  ( 1.000000000000000000, 0.0000000000000000000, 0.0000000000000000000 ) ) ;
#69 = DIRECTION ( 'NONE',  ( -0.0000000000000000000, -0.0000000000000000000, 1.000000000000000000 ) ) ;
#70 = CARTESIAN_POINT ( 'NONE',  ( 0.0000000000000000000, 0.0000000000000000000, -1.400000000000000100 ) ) ;
#71 = AXIS2_PLACEMENT_3D ( 'NONE', #70, #69, #68 ) ;
#72 = DIRECTION ( 'NONE',  ( 1.000000000000000000, 0.0000000000000000000, 0.0000000000000000000 ) ) ;
#73 = DIRECTION ( 'NONE',  ( -0.0000000000000000000, -0.0000000000000000000, 1.000000000000000000 ) ) ;
#74 = AXIS2_PLACEMENT_3D ( 'NONE', #76, #73, #72 ) ;
#75 = CIRCLE ( 'NONE', #71, 6.349999999999999600 ) ;
#76 = CARTESIAN_POINT ( 'NONE',  ( 0.0000000000000000000, 0.0000000000000000000, 4.308132045400366600 ) ) ;
#77 = CYLINDRICAL_SURFACE ( 'NONE', #74, 6.350000000000000500 ) ;
#78 = UNCERTAINTY_MEASURE_WITH_UNIT (LENGTH_MEASURE( 1.000000000000000100E-005 ), #81, 'distance_accuracy_value', 'NONE');
#79 =( NAMED_UNIT ( * ) SI_UNIT ( $, .STERADIAN. ) SOLID_ANGLE_UNIT ( ) );
#80 =( NAMED_UNIT ( * ) PLANE_ANGLE_UNIT ( ) SI_UNIT ( $, .RADIAN. ) );
#81 =( LENGTH_UNIT ( ) NAMED_UNIT ( * ) SI_UNIT ( .MILLI., .METRE. ) );
#82 = DIRECTION ( 'NONE',  ( -1.000000000000000000, 1.224606353822377300E-016, 0.0000000000000000000 ) ) ;
#83 = SURFACE_STYLE_FILL_AREA ( #47 ) ;
#84 =( GEOMETRIC_REPRESENTATION_CONTEXT ( 3 ) GLOBAL_UNCERTAINTY_ASSIGNED_CONTEXT ( ( #85 ) ) GLOBAL_UNIT_ASSIGNED_CONTEXT ( ( #87, #163, #162 ) ) REPRESENTATION_CONTEXT ( 'NONE', 'WORKASPACE' ) );
#85 = UNCERTAINTY_MEASURE_WITH_UNIT (LENGTH_MEASURE( 1.000000000000000100E-005 ), #87, 'distance_accuracy_value', 'NONE');
#86 = COLOUR_RGB ( '',0.9568627450980391500, 0.9490196078431372100, 0.9607843137254902200 ) ;
#87 =( LENGTH_UNIT ( ) NAMED_UNIT ( * ) SI_UNIT ( .MILLI., .METRE. ) );
#88 = MECHANICAL_DESIGN_GEOMETRIC_PRESENTATION_REPRESENTATION (  '', ( #90 ), #84 ) ;
#89 = PRESENTATION_LAYER_ASSIGNMENT (  '', '', ( #90 ) ) ;
#90 = STYLED_ITEM ( 'NONE', ( #91 ), #246 ) ;
#91 = PRESENTATION_STYLE_ASSIGNMENT (( #92 ) ) ;
#92 = SURFACE_STYLE_USAGE ( .BOTH. , #93 ) ;
#93 = SURFACE_SIDE_STYLE ('',( #94 ) ) ;
#94 = SURFACE_STYLE_FILL_AREA ( #95 ) ;
#95 = FILL_AREA_STYLE ('',( #121 ) ) ;
#96 = UNCERTAINTY_MEASURE_WITH_UNIT (LENGTH_MEASURE( 1.000000000000000100E-005 ), #122, 'distance_accuracy_value', 'NONE');
#97 =( NAMED_UNIT ( * ) SI_UNIT ( $, .STERADIAN. ) SOLID_ANGLE_UNIT ( ) );
#98 = CARTESIAN_POINT ( 'NONE',  ( 0.0000000000000000000, 0.0000000000000000000, -19.20000000000000300 ) ) ;
#99 = CIRCLE ( 'NONE', #142, 20.60000000000000100 ) ;
#100 =( GEOMETRIC_REPRESENTATION_CONTEXT ( 3 ) GLOBAL_UNCERTAINTY_ASSIGNED_CONTEXT ( ( #101 ) ) GLOBAL_UNIT_ASSIGNED_CONTEXT ( ( #104, #103, #102 ) ) REPRESENTATION_CONTEXT ( 'NONE', 'WORKASPACE' ) );
#101 = UNCERTAINTY_MEASURE_WITH_UNIT (LENGTH_MEASURE( 1.000000000000000100E-005 ), #104, 'distance_accuracy_value', 'NONE');
#102 =( NAMED_UNIT ( * ) SI_UNIT ( $, .STERADIAN. ) SOLID_ANGLE_UNIT ( ) );
#103 =( NAMED_UNIT ( * ) PLANE_ANGLE_UNIT ( ) SI_UNIT ( $, .RADIAN. ) );
#104 =( LENGTH_UNIT ( ) NAMED_UNIT ( * ) SI_UNIT ( .MILLI., .METRE. ) );
#105 = MECHANICAL_DESIGN_GEOMETRIC_PRESENTATION_REPRESENTATION (  '', ( #107 ), #100 ) ;
#106 = PRESENTATION_LAYER_ASSIGNMENT (  '', '', ( #107 ) ) ;
#107 = STYLED_ITEM ( 'NONE', ( #108 ), #128 ) ;
#108 = PRESENTATION_STYLE_ASSIGNMENT (( #109 ) ) ;
#109 = SURFACE_STYLE_USAGE ( .BOTH. , #110 ) ;
#110 = SURFACE_SIDE_STYLE ('',( #111 ) ) ;
#111 = SURFACE_STYLE_FILL_AREA ( #112 ) ;
#112 = FILL_AREA_STYLE ('',( #113 ) ) ;
#113 = FILL_AREA_STYLE_COLOUR ( '', #114 ) ;
#114 = COLOUR_RGB ( '',0.7960784313725489700, 0.8235294117647058400, 0.9372549019607843100 ) ;
#115 = COLOUR_RGB ( '',0.9568627450980391500, 0.9490196078431372100, 0.9607843137254902200 ) ;
#116 = FACE_OUTER_BOUND ( 'NONE', #247, .T. ) ;
#117 = DIRECTION ( 'NONE',  ( 1.000000000000000000, 0.0000000000000000000, 0.0000000000000000000 ) ) ;
#118 = DIRECTION ( 'NONE',  ( -0.0000000000000000000, -0.0000000000000000000, 1.000000000000000000 ) ) ;
#119 = CARTESIAN_POINT ( 'NONE',  ( 0.0000000000000000000, 0.0000000000000000000, 0.3968747508371834300 ) ) ;
#120 = AXIS2_PLACEMENT_3D ( 'NONE', #119, #118, #117 ) ;
#121 = FILL_AREA_STYLE_COLOUR ( '', #115 ) ;
#122 =( LENGTH_UNIT ( ) NAMED_UNIT ( * ) SI_UNIT ( .MILLI., .METRE. ) );
#123 = MECHANICAL_DESIGN_GEOMETRIC_PRESENTATION_REPRESENTATION (  '', ( #125 ), #53 ) ;
#124 = PRESENTATION_LAYER_ASSIGNMENT (  '', '', ( #125 ) ) ;
#125 = STYLED_ITEM ( 'NONE', ( #127 ), #240 ) ;
#126 = CARTESIAN_POINT ( 'NONE',  ( 0.0000000000000000000, 0.0000000000000000000, -19.20000000000000300 ) ) ;
#127 = PRESENTATION_STYLE_ASSIGNMENT (( #131 ) ) ;
#128 = ADVANCED_BREP_SHAPE_REPRESENTATION ( '4481-E0W', ( #255, #24 ), #129 ) ;
#129 =( GEOMETRIC_REPRESENTATION_CONTEXT ( 3 ) GLOBAL_UNCERTAINTY_ASSIGNED_CONTEXT ( ( #78 ) ) GLOBAL_UNIT_ASSIGNED_CONTEXT ( ( #81, #80, #79 ) ) REPRESENTATION_CONTEXT ( 'NONE', 'WORKASPACE' ) );
#130 = FILL_AREA_STYLE_COLOUR ( '', #86 ) ;
#131 = SURFACE_STYLE_USAGE ( .BOTH. , #43 ) ;
#132 = CARTESIAN_POINT ( 'NONE',  ( -7.776250346772100300E-016, -6.350000000000004100, 0.3968747508371829900 ) ) ;
#133 = DIRECTION ( 'NONE',  ( 1.000000000000000000, 0.0000000000000000000, 0.0000000000000000000 ) ) ;
#134 = DIRECTION ( 'NONE',  ( 0.0000000000000000000, 1.000000000000000000, 0.0000000000000000000 ) ) ;
#135 = DIRECTION ( 'NONE',  ( -1.000000000000000000, 0.0000000000000000000, 0.0000000000000000000 ) ) ;
#136 = CARTESIAN_POINT ( 'NONE',  ( 0.0000000000000000000, 0.0000000000000000000, -19.20000000000000300 ) ) ;
#137 = AXIS2_PLACEMENT_3D ( 'NONE', #136, #135, #134 ) ;
#138 = CIRCLE ( 'NONE', #120, 6.350000000000001400 ) ;
#139 = CARTESIAN_POINT ( 'NONE',  ( 0.0000000000000000000, 1.261344544437048600E-015, 1.399999999999998600 ) ) ;
#140 = DIRECTION ( 'NONE',  ( -1.224606353822377300E-016, -1.000000000000000000, 0.0000000000000000000 ) ) ;
#141 = CIRCLE ( 'NONE', #153, 20.60000000000000100 ) ;
#142 = AXIS2_PLACEMENT_3D ( 'NONE', #98, #82, #140 ) ;
#143 = FILL_AREA_STYLE_COLOUR ( '', #41 ) ;
#144 =( GEOMETRIC_REPRESENTATION_CONTEXT ( 3 ) GLOBAL_UNCERTAINTY_ASSIGNED_CONTEXT ( ( #145 ) ) GLOBAL_UNIT_ASSIGNED_CONTEXT ( ( #148, #147, #146 ) ) REPRESENTATION_CONTEXT ( 'NONE', 'WORKASPACE' ) );
#145 = UNCERTAINTY_MEASURE_WITH_UNIT (LENGTH_MEASURE( 1.000000000000000100E-005 ), #148, 'distance_accuracy_value', 'NONE');
#146 =( NAMED_UNIT ( * ) SI_UNIT ( $, .STERADIAN. ) SOLID_ANGLE_UNIT ( ) );
#147 =( NAMED_UNIT ( * ) PLANE_ANGLE_UNIT ( ) SI_UNIT ( $, .RADIAN. ) );
#148 =( LENGTH_UNIT ( ) NAMED_UNIT ( * ) SI_UNIT ( .MILLI., .METRE. ) );
#149 = MECHANICAL_DESIGN_GEOMETRIC_PRESENTATION_REPRESENTATION (  '', ( #151 ), #144 ) ;
#150 = PRESENTATION_LAYER_ASSIGNMENT (  '', '', ( #151 ) ) ;
#151 = STYLED_ITEM ( 'NONE', ( #152 ), #255 ) ;
#152 = PRESENTATION_STYLE_ASSIGNMENT (( #54 ) ) ;
#153 = AXIS2_PLACEMENT_3D ( 'NONE', #126, #133, #161 ) ;
#154 = CARTESIAN_POINT ( 'NONE',  ( -6.350000000000002300, 7.776250346772098400E-016, 0.3968747508371834300 ) ) ;
#155 = DIRECTION ( 'NONE',  ( -0.0000000000000000000, -0.0000000000000000000, 1.000000000000000000 ) ) ;
#156 = VECTOR ( 'NONE', #155, 1000.000000000000000 ) ;
#157 = CARTESIAN_POINT ( 'NONE',  ( -6.350000000000000500, 7.776250346772096400E-016, 4.308132045400366600 ) ) ;
#158 = LINE ( 'NONE', #157, #156 ) ;
#159 = DIRECTION ( 'NONE',  ( 1.000000000000000000, 0.0000000000000000000, 0.0000000000000000000 ) ) ;
#160 = DIRECTION ( 'NONE',  ( -0.0000000000000000000, -0.0000000000000000000, 1.000000000000000000 ) ) ;
#161 = DIRECTION ( 'NONE',  ( 0.0000000000000000000, 0.0000000000000000000, -1.000000000000000000 ) ) ;
#162 =( NAMED_UNIT ( * ) SI_UNIT ( $, .STERADIAN. ) SOLID_ANGLE_UNIT ( ) );
#163 =( NAMED_UNIT ( * ) PLANE_ANGLE_UNIT ( ) SI_UNIT ( $, .RADIAN. ) );
#164 =( NAMED_UNIT ( * ) PLANE_ANGLE_UNIT ( ) SI_UNIT ( $, .RADIAN. ) );
#165 =( LENGTH_UNIT ( ) NAMED_UNIT ( * ) SI_UNIT ( .MILLI., .METRE. ) );
#166 = MECHANICAL_DESIGN_GEOMETRIC_PRESENTATION_REPRESENTATION (  '', ( #168 ), #13 ) ;
#167 = PRESENTATION_LAYER_ASSIGNMENT (  '', '', ( #168 ) ) ;
#168 = STYLED_ITEM ( 'NONE', ( #169 ), #228 ) ;
#169 = PRESENTATION_STYLE_ASSIGNMENT (( #170 ) ) ;
#170 = SURFACE_STYLE_USAGE ( .BOTH. , #171 ) ;
#171 = SURFACE_SIDE_STYLE ('',( #172 ) ) ;
#172 = SURFACE_STYLE_FILL_AREA ( #173 ) ;
#173 = FILL_AREA_STYLE ('',( #180 ) ) ;
#174 = COLOUR_RGB ( '',0.9568627450980391500, 0.9490196078431372100, 0.9607843137254902200 ) ;
#175 = FACE_OUTER_BOUND ( 'NONE', #229, .T. ) ;
#176 = DIRECTION ( 'NONE',  ( -0.0000000000000000000, -0.0000000000000000000, 1.000000000000000000 ) ) ;
#177 = VECTOR ( 'NONE', #176, 1000.000000000000000 ) ;
#178 = CARTESIAN_POINT ( 'NONE',  ( 6.350000000000000500, 0.0000000000000000000, 4.308132045400366600 ) ) ;
#179 = LINE ( 'NONE', #178, #177 ) ;
#180 = FILL_AREA_STYLE_COLOUR ( '', #174 ) ;
#181 = CARTESIAN_POINT ( 'NONE',  ( 6.350000000000002300, 0.0000000000000000000, 0.3968747508371834300 ) ) ;
#182 = DIRECTION ( 'NONE',  ( 1.000000000000000000, 0.0000000000000000000, 0.0000000000000000000 ) ) ;
#183 = DIRECTION ( 'NONE',  ( -0.0000000000000000000, -0.0000000000000000000, 1.000000000000000000 ) ) ;
#184 = CARTESIAN_POINT ( 'NONE',  ( 0.0000000000000000000, 0.0000000000000000000, 0.3968747508371834300 ) ) ;
#185 = AXIS2_PLACEMENT_3D ( 'NONE', #184, #183, #182 ) ;
#186 = CIRCLE ( 'NONE', #185, 6.350000000000001400 ) ;
#187 = DIRECTION ( 'NONE',  ( 1.000000000000000000, 0.0000000000000000000, 0.0000000000000000000 ) ) ;
#188 = DIRECTION ( 'NONE',  ( 0.0000000000000000000, -0.0000000000000000000, 1.000000000000000000 ) ) ;
#189 = CARTESIAN_POINT ( 'NONE',  ( 0.0000000000000000000, 5.143516556418882900E-016, -1.399999999999999900 ) ) ;
#190 = AXIS2_PLACEMENT_3D ( 'NONE', #189, #188, #187 ) ;
#191 = PLANE ( 'NONE',  #190 ) ;
#192 =( GEOMETRIC_REPRESENTATION_CONTEXT ( 3 ) GLOBAL_UNCERTAINTY_ASSIGNED_CONTEXT ( ( #193 ) ) GLOBAL_UNIT_ASSIGNED_CONTEXT ( ( #196, #195, #194 ) ) REPRESENTATION_CONTEXT ( 'NONE', 'WORKASPACE' ) );
#193 = UNCERTAINTY_MEASURE_WITH_UNIT (LENGTH_MEASURE( 1.000000000000000100E-005 ), #196, 'distance_accuracy_value', 'NONE');
#194 =( NAMED_UNIT ( * ) SI_UNIT ( $, .STERADIAN. ) SOLID_ANGLE_UNIT ( ) );
#195 =( NAMED_UNIT ( * ) PLANE_ANGLE_UNIT ( ) SI_UNIT ( $, .RADIAN. ) );
#196 =( LENGTH_UNIT ( ) NAMED_UNIT ( * ) SI_UNIT ( .MILLI., .METRE. ) );
#197 = MECHANICAL_DESIGN_GEOMETRIC_PRESENTATION_REPRESENTATION (  '', ( #199 ), #192 ) ;
#198 = PRESENTATION_LAYER_ASSIGNMENT (  '', '', ( #199 ) ) ;
#199 = STYLED_ITEM ( 'NONE', ( #200 ), #222 ) ;
#200 = PRESENTATION_STYLE_ASSIGNMENT (( #201 ) ) ;
#201 = SURFACE_STYLE_USAGE ( .BOTH. , #202 ) ;
#202 = SURFACE_SIDE_STYLE ('',( #203 ) ) ;
#203 = SURFACE_STYLE_FILL_AREA ( #204 ) ;
#204 = FILL_AREA_STYLE ('',( #205 ) ) ;
#205 = FILL_AREA_STYLE_COLOUR ( '', #206 ) ;
#206 = COLOUR_RGB ( '',0.9568627450980391500, 0.9490196078431372100, 0.9607843137254902200 ) ;
#207 = DIRECTION ( 'NONE',  ( 1.000000000000000000, 0.0000000000000000000, 0.0000000000000000000 ) ) ;
#208 = DIRECTION ( 'NONE',  ( -0.0000000000000000000, -0.0000000000000000000, 1.000000000000000000 ) ) ;
#209 = CARTESIAN_POINT ( 'NONE',  ( 0.0000000000000000000, 0.0000000000000000000, -1.400000000000000100 ) ) ;
#210 = AXIS2_PLACEMENT_3D ( 'NONE', #209, #208, #207 ) ;
#211 = CIRCLE ( 'NONE', #210, 6.349999999999999600 ) ;
#212 = FACE_OUTER_BOUND ( 'NONE', #223, .T. ) ;
#213 = ORIENTED_EDGE ( 'NONE', *, *, #224, .F. ) ;
#214 = ORIENTED_EDGE ( 'NONE', *, *, #227, .T. ) ;
#215 = ORIENTED_EDGE ( 'NONE', *, *, #232, .F. ) ;
#216 = EDGE_CURVE ( 'NONE', #261, #260, #211, .T. ) ;
#217 = ORIENTED_EDGE ( 'NONE', *, *, #216, .F. ) ;
#218 = CLOSED_SHELL ( 'NONE', ( #256, #228, #240, #246, #222 ) ) ;
#219 = ORIENTED_EDGE ( 'NONE', *, *, #259, .F. ) ;
#220 = ORIENTED_EDGE ( 'NONE', *, *, #216, .T. ) ;
#221 = ORIENTED_EDGE ( 'NONE', *, *, #243, .F. ) ;
#222 = ADVANCED_FACE ( 'NONE', ( #212 ), #191, .F. ) ;
#223 = EDGE_LOOP ( 'NONE', ( #219, #217 ) ) ;
#224 = EDGE_CURVE ( 'NONE', #225, #254, #186, .T. ) ;
#225 = VERTEX_POINT ( 'NONE', #181 ) ;
#226 = ORIENTED_EDGE ( 'NONE', *, *, #227, .F. ) ;
#227 = EDGE_CURVE ( 'NONE', #260, #225, #179, .T. ) ;
#228 = ADVANCED_FACE ( 'NONE', ( #175 ), #4, .T. ) ;
#229 = EDGE_LOOP ( 'NONE', ( #230, #231, #234, #238 ) ) ;
#230 = ORIENTED_EDGE ( 'NONE', *, *, #253, .T. ) ;
#231 = ORIENTED_EDGE ( 'NONE', *, *, #232, .T. ) ;
#232 = EDGE_CURVE ( 'NONE', #251, #233, #1, .T. ) ;
#233 = VERTEX_POINT ( 'NONE', #132 ) ;
#234 = ORIENTED_EDGE ( 'NONE', *, *, #235, .T. ) ;
#235 = EDGE_CURVE ( 'NONE', #233, #236, #99, .T. ) ;
#236 = VERTEX_POINT ( 'NONE', #139 ) ;
#237 = EDGE_LOOP ( 'NONE', ( #241, #242, #244, #245 ) ) ;
#238 = ORIENTED_EDGE ( 'NONE', *, *, #239, .F. ) ;
#239 = EDGE_CURVE ( 'NONE', #254, #236, #141, .T. ) ;
#240 = ADVANCED_FACE ( 'NONE', ( #48 ), #52, .T. ) ;
#241 = ORIENTED_EDGE ( 'NONE', *, *, #235, .F. ) ;
#242 = ORIENTED_EDGE ( 'NONE', *, *, #243, .T. ) ;
#243 = EDGE_CURVE ( 'NONE', #233, #225, #138, .T. ) ;
#244 = ORIENTED_EDGE ( 'NONE', *, *, #224, .T. ) ;
#245 = ORIENTED_EDGE ( 'NONE', *, *, #239, .T. ) ;
#246 = ADVANCED_FACE ( 'NONE', ( #116 ), #51, .T. ) ;
#247 = EDGE_LOOP ( 'NONE', ( #248, #220, #214, #221, #215 ) ) ;
#248 = ORIENTED_EDGE ( 'NONE', *, *, #250, .F. ) ;
#249 = ORIENTED_EDGE ( 'NONE', *, *, #250, .T. ) ;
#250 = EDGE_CURVE ( 'NONE', #261, #251, #158, .T. ) ;
#251 = VERTEX_POINT ( 'NONE', #154 ) ;
#252 = ORIENTED_EDGE ( 'NONE', *, *, #253, .F. ) ;
#253 = EDGE_CURVE ( 'NONE', #254, #251, #64, .T. ) ;
#254 = VERTEX_POINT ( 'NONE', #59 ) ;
#255 = MANIFOLD_SOLID_BREP ( 'NONE', #218 ) ;
#256 = ADVANCED_FACE ( 'NONE', ( #42 ), #77, .T. ) ;
#257 = EDGE_LOOP ( 'NONE', ( #258, #249, #252, #213, #226 ) ) ;
#258 = ORIENTED_EDGE ( 'NONE', *, *, #259, .T. ) ;
#259 = EDGE_CURVE ( 'NONE', #260, #261, #75, .T. ) ;
#260 = VERTEX_POINT ( 'NONE', #67 ) ;
#261 = VERTEX_POINT ( 'NONE', #66 ) ;
ENDSEC;
END-ISO-10303-21;
