ISO-10303-21;
HEADER;
FILE_DESCRIPTION (( 'STEP AP203' ),
    '1' );
FILE_NAME ('43369C_36576.step',
    '2017-07-20T12:44:53',
    ( '' ),
    ( '' ),
    'SwSTEP 2.0',
    'SolidWorks 2016',
    '' );
FILE_SCHEMA (( 'CONFIG_CONTROL_DESIGN' ));
ENDSEC;

DATA;
#1 = CARTESIAN_POINT ( 'NONE',  ( 0.0000000000000000000, 0.0000000000000000000, 1.149999999999999900 ) ) ;
#2 = DATE_TIME_ROLE ( 'classification_date' ) ;
#3 = APPROVAL ( #151, 'UNSPECIFIED' ) ;
#4 = CC_DESIGN_SECURITY_CLASSIFICATION ( #98, ( #40 ) ) ;
#5 = EDGE_CURVE ( 'NONE', #25, #41, #82, .T. ) ;
#6 = EDGE_CURVE ( 'NONE', #124, #115, #113, .T. ) ;
#7 = ADVANCED_FACE ( 'NONE', ( #155 ), #52, .T. ) ;
#8 = ORIENTED_EDGE ( 'NONE', *, *, #158, .T. ) ;
#9 = PERSON_AND_ORGANIZATION ( #60, #132 ) ;
#10 = APPROVAL_DATE_TIME ( #121, #56 ) ;
#11 = LINE ( 'NONE', #91, #163 ) ;
#12 = CC_DESIGN_APPROVAL ( #3, ( #171 ) ) ;
#13 = PRODUCT_RELATED_PRODUCT_CATEGORY ( 'detail', '', ( #73 ) ) ;
#14 = LOCAL_TIME ( 8, 44, 53.00000000000000000, #99 ) ;
#15 = DIRECTION ( 'NONE',  ( -1.000000000000000000, 0.0000000000000000000, 0.0000000000000000000 ) ) ;
#16 = APPROVAL_PERSON_ORGANIZATION ( #136, #165, #94 ) ;
#17 = APPLICATION_PROTOCOL_DEFINITION ( 'international standard', 'config_control_design', 1994, #81 ) ;
#18 = CARTESIAN_POINT ( 'NONE',  ( 12.50000000000000000, 1.530808498934191500E-015, -1.149999999999999900 ) ) ;
#19 = DATE_AND_TIME ( #135, #85 ) ;
#20 = PERSON_AND_ORGANIZATION_ROLE ( 'design_owner' ) ;
#21 = EDGE_CURVE ( 'NONE', #115, #124, #26, .T. ) ;
#22 = EDGE_CURVE ( 'NONE', #25, #115, #11, .T. ) ;
#23 = DIRECTION ( 'NONE',  ( 0.0000000000000000000, 0.0000000000000000000, 1.000000000000000000 ) ) ;
#24 = VECTOR ( 'NONE', #92, 1000.000000000000000 ) ;
#25 = VERTEX_POINT ( 'NONE', #170 ) ;
#26 = CIRCLE ( 'NONE', #58, 12.50000000000000000 ) ;
#27 = CC_DESIGN_PERSON_AND_ORGANIZATION_ASSIGNMENT ( #84, #106, ( #171 ) ) ;
#28 = AXIS2_PLACEMENT_3D ( 'NONE', #143, #23, #150 ) ;
#29 = EDGE_CURVE ( 'NONE', #41, #25, #102, .T. ) ;
#30 = ORIENTED_EDGE ( 'NONE', *, *, #29, .T. ) ;
#31 = CARTESIAN_POINT ( 'NONE',  ( 0.0000000000000000000, 0.0000000000000000000, 1.149999999999999900 ) ) ;
#32 = PLANE ( 'NONE',  #122 ) ;
#33 = DIRECTION ( 'NONE',  ( -1.000000000000000000, 0.0000000000000000000, 0.0000000000000000000 ) ) ;
#34 = CC_DESIGN_DATE_AND_TIME_ASSIGNMENT ( #157, #117, ( #171 ) ) ;
#35 = ORIENTED_EDGE ( 'NONE', *, *, #22, .T. ) ;
#36 = CALENDAR_DATE ( 2017, 20, 7 ) ;
#37 = AXIS2_PLACEMENT_3D ( 'NONE', #64, #141, #47 ) ;
#38 = EDGE_LOOP ( 'NONE', ( #126, #110 ) ) ;
#39 = PERSON_AND_ORGANIZATION ( #60, #132 ) ;
#40 = PRODUCT_DEFINITION_FORMATION_WITH_SPECIFIED_SOURCE ( 'ANY', '', #73, .NOT_KNOWN. ) ;
#41 = VERTEX_POINT ( 'NONE', #79 ) ;
#42 = DIRECTION ( 'NONE',  ( 1.000000000000000000, 0.0000000000000000000, 0.0000000000000000000 ) ) ;
#43 = COORDINATED_UNIVERSAL_TIME_OFFSET ( 5, 0, .BEHIND. ) ;
#44 = EDGE_LOOP ( 'NONE', ( #133, #75, #35, #97 ) ) ;
#45 = CARTESIAN_POINT ( 'NONE',  ( -12.50000000000000000, 0.0000000000000000000, -1.149999999999999900 ) ) ;
#46 = APPROVAL_ROLE ( '' ) ;
#47 = DIRECTION ( 'NONE',  ( 1.000000000000000000, 0.0000000000000000000, 0.0000000000000000000 ) ) ;
#48 =( NAMED_UNIT ( * ) SI_UNIT ( $, .STERADIAN. ) SOLID_ANGLE_UNIT ( ) );
#49 = CARTESIAN_POINT ( 'NONE',  ( 12.50000000000000000, 1.530808498934191500E-015, 1.149999999999999900 ) ) ;
#50 = AXIS2_PLACEMENT_3D ( 'NONE', #1, #118, #42 ) ;
#51 = COORDINATED_UNIVERSAL_TIME_OFFSET ( 5, 0, .BEHIND. ) ;
#52 = CYLINDRICAL_SURFACE ( 'NONE', #70, 12.50000000000000000 ) ;
#53 = LOCAL_TIME ( 8, 44, 53.00000000000000000, #147 ) ;
#54 = CYLINDRICAL_SURFACE ( 'NONE', #114, 12.50000000000000000 ) ;
#55 = FACE_OUTER_BOUND ( 'NONE', #44, .T. ) ;
#56 = APPROVAL ( #153, 'UNSPECIFIED' ) ;
#57 = LOCAL_TIME ( 8, 44, 53.00000000000000000, #43 ) ;
#58 = AXIS2_PLACEMENT_3D ( 'NONE', #93, #95, #105 ) ;
#59 = ORIENTED_EDGE ( 'NONE', *, *, #22, .F. ) ;
#60 = PERSON ( 'UNSPECIFIED', 'UNSPECIFIED', 'UNSPECIFIED', ('UNSPECIFIED'), ('UNSPECIFIED'), ('UNSPECIFIED') ) ;
#61 = PERSON_AND_ORGANIZATION ( #60, #132 ) ;
#62 = DIRECTION ( 'NONE',  ( -0.0000000000000000000, -0.0000000000000000000, -1.000000000000000000 ) ) ;
#63 = DIRECTION ( 'NONE',  ( 0.0000000000000000000, 0.0000000000000000000, 1.000000000000000000 ) ) ;
#64 = CARTESIAN_POINT ( 'NONE',  ( 0.0000000000000000000, 0.0000000000000000000, -1.149999999999999900 ) ) ;
#65 = MECHANICAL_CONTEXT ( 'NONE', #81, 'mechanical' ) ;
#66 = APPLICATION_CONTEXT ( 'configuration controlled 3d designs of mechanical parts and assemblies' ) ;
#67 = FACE_OUTER_BOUND ( 'NONE', #161, .T. ) ;
#68 = CC_DESIGN_APPROVAL ( #56, ( #40 ) ) ;
#69 = PLANE ( 'NONE',  #101 ) ;
#70 = AXIS2_PLACEMENT_3D ( 'NONE', #175, #148, #33 ) ;
#71 = ADVANCED_FACE ( 'NONE', ( #67 ), #69, .T. ) ;
#72 = PERSON_AND_ORGANIZATION ( #60, #132 ) ;
#73 = PRODUCT ( '43369C_36576', '43369C_36576', '', ( #65 ) ) ;
#74 = CC_DESIGN_PERSON_AND_ORGANIZATION_ASSIGNMENT ( #39, #166, ( #40 ) ) ;
#75 = ORIENTED_EDGE ( 'NONE', *, *, #5, .F. ) ;
#76 = DIRECTION ( 'NONE',  ( -0.0000000000000000000, -0.0000000000000000000, -1.000000000000000000 ) ) ;
#77 = APPROVAL_STATUS ( 'not_yet_approved' ) ;
#78 = SECURITY_CLASSIFICATION_LEVEL ( 'unclassified' ) ;
#79 = CARTESIAN_POINT ( 'NONE',  ( 12.50000000000000000, 1.530808498934191500E-015, 1.149999999999999900 ) ) ;
#80 = DIRECTION ( 'NONE',  ( 1.000000000000000000, 0.0000000000000000000, -0.0000000000000000000 ) ) ;
#81 = APPLICATION_CONTEXT ( 'configuration controlled 3d designs of mechanical parts and assemblies' ) ;
#82 = CIRCLE ( 'NONE', #28, 12.50000000000000000 ) ;
#83 = CC_DESIGN_PERSON_AND_ORGANIZATION_ASSIGNMENT ( #159, #149, ( #40 ) ) ;
#84 = PERSON_AND_ORGANIZATION ( #60, #132 ) ;
#85 = LOCAL_TIME ( 8, 44, 53.00000000000000000, #51 ) ;
#86 =( GEOMETRIC_REPRESENTATION_CONTEXT ( 3 ) GLOBAL_UNCERTAINTY_ASSIGNED_CONTEXT ( ( #111 ) ) GLOBAL_UNIT_ASSIGNED_CONTEXT ( ( #131, #140, #48 ) ) REPRESENTATION_CONTEXT ( 'NONE', 'WORKASPACE' ) );
#87 = CALENDAR_DATE ( 2017, 20, 7 ) ;
#88 = ORIENTED_EDGE ( 'NONE', *, *, #6, .T. ) ;
#89 = APPROVAL_DATE_TIME ( #103, #3 ) ;
#90 = EDGE_LOOP ( 'NONE', ( #107, #8, #88, #59 ) ) ;
#91 = CARTESIAN_POINT ( 'NONE',  ( -12.50000000000000000, 0.0000000000000000000, 1.149999999999999900 ) ) ;
#92 = DIRECTION ( 'NONE',  ( -0.0000000000000000000, -0.0000000000000000000, -1.000000000000000000 ) ) ;
#93 = CARTESIAN_POINT ( 'NONE',  ( 0.0000000000000000000, 0.0000000000000000000, -1.149999999999999900 ) ) ;
#94 = APPROVAL_ROLE ( '' ) ;
#95 = DIRECTION ( 'NONE',  ( 0.0000000000000000000, 0.0000000000000000000, 1.000000000000000000 ) ) ;
#96 = DIRECTION ( 'NONE',  ( 1.000000000000000000, 0.0000000000000000000, 0.0000000000000000000 ) ) ;
#97 = ORIENTED_EDGE ( 'NONE', *, *, #21, .T. ) ;
#98 = SECURITY_CLASSIFICATION ( '', '', #78 ) ;
#99 = COORDINATED_UNIVERSAL_TIME_OFFSET ( 5, 0, .BEHIND. ) ;
#100 = SHAPE_DEFINITION_REPRESENTATION ( #139, #127 ) ;
#101 = AXIS2_PLACEMENT_3D ( 'NONE', #31, #130, #128 ) ;
#102 = CIRCLE ( 'NONE', #50, 12.50000000000000000 ) ;
#103 = DATE_AND_TIME ( #120, #53 ) ;
#104 = CC_DESIGN_PERSON_AND_ORGANIZATION_ASSIGNMENT ( #72, #109, ( #98 ) ) ;
#105 = DIRECTION ( 'NONE',  ( 1.000000000000000000, 0.0000000000000000000, 0.0000000000000000000 ) ) ;
#106 = PERSON_AND_ORGANIZATION_ROLE ( 'creator' ) ;
#107 = ORIENTED_EDGE ( 'NONE', *, *, #29, .F. ) ;
#108 = APPROVAL_ROLE ( '' ) ;
#109 = PERSON_AND_ORGANIZATION_ROLE ( 'classification_officer' ) ;
#110 = ORIENTED_EDGE ( 'NONE', *, *, #6, .F. ) ;
#111 = UNCERTAINTY_MEASURE_WITH_UNIT (LENGTH_MEASURE( 1.000000000000000100E-005 ), #131, 'distance_accuracy_value', 'NONE');
#112 = CC_DESIGN_DATE_AND_TIME_ASSIGNMENT ( #19, #2, ( #98 ) ) ;
#113 = CIRCLE ( 'NONE', #37, 12.50000000000000000 ) ;
#114 = AXIS2_PLACEMENT_3D ( 'NONE', #167, #62, #15 ) ;
#115 = VERTEX_POINT ( 'NONE', #45 ) ;
#116 = APPLICATION_PROTOCOL_DEFINITION ( 'international standard', 'config_control_design', 1994, #66 ) ;
#117 = DATE_TIME_ROLE ( 'creation_date' ) ;
#118 = DIRECTION ( 'NONE',  ( 0.0000000000000000000, 0.0000000000000000000, 1.000000000000000000 ) ) ;
#119 = APPROVAL_DATE_TIME ( #162, #165 ) ;
#120 = CALENDAR_DATE ( 2017, 20, 7 ) ;
#121 = DATE_AND_TIME ( #36, #57 ) ;
#122 = AXIS2_PLACEMENT_3D ( 'NONE', #152, #63, #80 ) ;
#123 = ADVANCED_FACE ( 'NONE', ( #55 ), #54, .T. ) ;
#124 = VERTEX_POINT ( 'NONE', #18 ) ;
#125 = PERSON_AND_ORGANIZATION ( #60, #132 ) ;
#126 = ORIENTED_EDGE ( 'NONE', *, *, #21, .F. ) ;
#127 = ADVANCED_BREP_SHAPE_REPRESENTATION ( '43369C_36576', ( #156, #154 ), #86 ) ;
#128 = DIRECTION ( 'NONE',  ( 1.000000000000000000, 0.0000000000000000000, -0.0000000000000000000 ) ) ;
#129 = DESIGN_CONTEXT ( 'detailed design', #66, 'design' ) ;
#130 = DIRECTION ( 'NONE',  ( 0.0000000000000000000, 0.0000000000000000000, 1.000000000000000000 ) ) ;
#131 =( LENGTH_UNIT ( ) NAMED_UNIT ( * ) SI_UNIT ( .MILLI., .METRE. ) );
#132 = ORGANIZATION ( 'UNSPECIFIED', 'UNSPECIFIED', '' ) ;
#133 = ORIENTED_EDGE ( 'NONE', *, *, #158, .F. ) ;
#134 = CALENDAR_DATE ( 2017, 20, 7 ) ;
#135 = CALENDAR_DATE ( 2017, 20, 7 ) ;
#136 = PERSON_AND_ORGANIZATION ( #60, #132 ) ;
#137 = ADVANCED_FACE ( 'NONE', ( #174 ), #32, .F. ) ;
#138 = APPROVAL_PERSON_ORGANIZATION ( #125, #56, #108 ) ;
#139 = PRODUCT_DEFINITION_SHAPE ( 'NONE', 'NONE',  #171 ) ;
#140 =( NAMED_UNIT ( * ) PLANE_ANGLE_UNIT ( ) SI_UNIT ( $, .RADIAN. ) );
#141 = DIRECTION ( 'NONE',  ( 0.0000000000000000000, 0.0000000000000000000, 1.000000000000000000 ) ) ;
#142 = CARTESIAN_POINT ( 'NONE',  ( 0.0000000000000000000, 0.0000000000000000000, 0.0000000000000000000 ) ) ;
#143 = CARTESIAN_POINT ( 'NONE',  ( 0.0000000000000000000, 0.0000000000000000000, 1.149999999999999900 ) ) ;
#144 = CLOSED_SHELL ( 'NONE', ( #7, #123, #71, #137 ) ) ;
#145 = LINE ( 'NONE', #49, #24 ) ;
#146 = ORIENTED_EDGE ( 'NONE', *, *, #5, .T. ) ;
#147 = COORDINATED_UNIVERSAL_TIME_OFFSET ( 5, 0, .BEHIND. ) ;
#148 = DIRECTION ( 'NONE',  ( -0.0000000000000000000, -0.0000000000000000000, -1.000000000000000000 ) ) ;
#149 = PERSON_AND_ORGANIZATION_ROLE ( 'design_supplier' ) ;
#150 = DIRECTION ( 'NONE',  ( 1.000000000000000000, 0.0000000000000000000, 0.0000000000000000000 ) ) ;
#151 = APPROVAL_STATUS ( 'not_yet_approved' ) ;
#152 = CARTESIAN_POINT ( 'NONE',  ( 0.0000000000000000000, 0.0000000000000000000, -1.149999999999999900 ) ) ;
#153 = APPROVAL_STATUS ( 'not_yet_approved' ) ;
#154 = AXIS2_PLACEMENT_3D ( 'NONE', #142, #168, #96 ) ;
#155 = FACE_OUTER_BOUND ( 'NONE', #90, .T. ) ;
#156 = MANIFOLD_SOLID_BREP ( 'Boss-Extrude1', #144 ) ;
#157 = DATE_AND_TIME ( #134, #14 ) ;
#158 = EDGE_CURVE ( 'NONE', #41, #124, #145, .T. ) ;
#159 = PERSON_AND_ORGANIZATION ( #60, #132 ) ;
#160 = APPROVAL_PERSON_ORGANIZATION ( #61, #3, #46 ) ;
#161 = EDGE_LOOP ( 'NONE', ( #146, #30 ) ) ;
#162 = DATE_AND_TIME ( #87, #173 ) ;
#163 = VECTOR ( 'NONE', #76, 1000.000000000000000 ) ;
#164 = CC_DESIGN_PERSON_AND_ORGANIZATION_ASSIGNMENT ( #9, #20, ( #73 ) ) ;
#165 = APPROVAL ( #77, 'UNSPECIFIED' ) ;
#166 = PERSON_AND_ORGANIZATION_ROLE ( 'creator' ) ;
#167 = CARTESIAN_POINT ( 'NONE',  ( 0.0000000000000000000, 0.0000000000000000000, 1.149999999999999900 ) ) ;
#168 = DIRECTION ( 'NONE',  ( 0.0000000000000000000, 0.0000000000000000000, 1.000000000000000000 ) ) ;
#169 = COORDINATED_UNIVERSAL_TIME_OFFSET ( 5, 0, .BEHIND. ) ;
#170 = CARTESIAN_POINT ( 'NONE',  ( -12.50000000000000000, 0.0000000000000000000, 1.149999999999999900 ) ) ;
#171 = PRODUCT_DEFINITION ( 'UNKNOWN', '', #40, #129 ) ;
#172 = CC_DESIGN_APPROVAL ( #165, ( #98 ) ) ;
#173 = LOCAL_TIME ( 8, 44, 53.00000000000000000, #169 ) ;
#174 = FACE_OUTER_BOUND ( 'NONE', #38, .T. ) ;
#175 = CARTESIAN_POINT ( 'NONE',  ( 0.0000000000000000000, 0.0000000000000000000, 1.149999999999999900 ) ) ;
ENDSEC;
END-ISO-10303-21;
