ISO-10303-21;
HEADER;
FILE_DESCRIPTION (( 'STEP AP203' ),
    '1' );
FILE_NAME ('Web Model 15467_21246.step',
    '2022-03-29T20:39:54',
    ( '' ),
    ( '' ),
    'SwSTEP 2.0',
    'SolidWorks 2021',
    '' );
FILE_SCHEMA (( 'CONFIG_CONTROL_DESIGN' ));
ENDSEC;

DATA;
#1 = CC_DESIGN_APPROVAL ( #171, ( #159 ) ) ;
#2 = APPROVAL_ROLE ( '' ) ;
#3 = PLANE ( 'NONE',  #82 ) ;
#4 = APPLICATION_CONTEXT ( 'configuration controlled 3d designs of mechanical parts and assemblies' ) ;
#5 =( NAMED_UNIT ( * ) PLANE_ANGLE_UNIT ( ) SI_UNIT ( $, .RADIAN. ) );
#6 = CARTESIAN_POINT ( 'NONE',  ( 0.000000000000000000, 0.000000000000000000, -1.000000000000000000 ) ) ;
#7 = APPLICATION_PROTOCOL_DEFINITION ( 'international standard', 'config_control_design', 1994, #92 ) ;
#8 =( GEOMETRIC_REPRESENTATION_CONTEXT ( 3 ) GLOBAL_UNCERTAINTY_ASSIGNED_CONTEXT ( ( #74 ) ) GLOBAL_UNIT_ASSIGNED_CONTEXT ( ( #172, #5, #52 ) ) REPRESENTATION_CONTEXT ( 'NONE', 'WORKASPACE' ) );
#9 = COORDINATED_UNIVERSAL_TIME_OFFSET ( 5, 0, .BEHIND. ) ;
#10 = PERSON_AND_ORGANIZATION ( #11, #32 ) ;
#11 = PERSON ( 'UNSPECIFIED', 'UNSPECIFIED', 'UNSPECIFIED', ('UNSPECIFIED'), ('UNSPECIFIED'), ('UNSPECIFIED') ) ;
#12 = DIRECTION ( 'NONE',  ( 0.000000000000000000, 0.000000000000000000, 1.000000000000000000 ) ) ;
#13 = DESIGN_CONTEXT ( 'detailed design', #92, 'design' ) ;
#14 = AXIS2_PLACEMENT_3D ( 'NONE', #6, #25, #78 ) ;
#15 = ADVANCED_FACE ( 'NONE', ( #90 ), #3, .F. ) ;
#16 = CARTESIAN_POINT ( 'NONE',  ( 0.000000000000000000, 0.000000000000000000, 1.000000000000000000 ) ) ;
#17 = CARTESIAN_POINT ( 'NONE',  ( 0.000000000000000000, 0.000000000000000000, 1.000000000000000000 ) ) ;
#18 = DIRECTION ( 'NONE',  ( -0.000000000000000000, -0.000000000000000000, -1.000000000000000000 ) ) ;
#19 = LINE ( 'NONE', #143, #67 ) ;
#20 = DATE_TIME_ROLE ( 'creation_date' ) ;
#21 = CYLINDRICAL_SURFACE ( 'NONE', #96, 12.50000000000000000 ) ;
#22 = EDGE_CURVE ( 'NONE', #73, #149, #29, .T. ) ;
#23 = APPROVAL ( #164, 'UNSPECIFIED' ) ;
#24 = DIRECTION ( 'NONE',  ( 0.000000000000000000, 0.000000000000000000, 1.000000000000000000 ) ) ;
#25 = DIRECTION ( 'NONE',  ( 0.000000000000000000, 0.000000000000000000, 1.000000000000000000 ) ) ;
#26 = PRODUCT_RELATED_PRODUCT_CATEGORY ( 'detail', '', ( #48 ) ) ;
#27 = PERSON_AND_ORGANIZATION_ROLE ( 'creator' ) ;
#28 = DIRECTION ( 'NONE',  ( -1.000000000000000000, 0.000000000000000000, 0.000000000000000000 ) ) ;
#29 = CIRCLE ( 'NONE', #134, 12.50000000000000000 ) ;
#30 = DIRECTION ( 'NONE',  ( 0.000000000000000000, 0.000000000000000000, 1.000000000000000000 ) ) ;
#31 = CARTESIAN_POINT ( 'NONE',  ( 0.000000000000000000, 0.000000000000000000, 1.000000000000000000 ) ) ;
#32 = ORGANIZATION ( 'UNSPECIFIED', 'UNSPECIFIED', '' ) ;
#33 = PERSON_AND_ORGANIZATION_ROLE ( 'design_supplier' ) ;
#34 = SECURITY_CLASSIFICATION ( '', '', #103 ) ;
#35 = CC_DESIGN_PERSON_AND_ORGANIZATION_ASSIGNMENT ( #154, #27, ( #77 ) ) ;
#36 = ORIENTED_EDGE ( 'NONE', *, *, #141, .T. ) ;
#37 = VERTEX_POINT ( 'NONE', #110 ) ;
#38 = CC_DESIGN_SECURITY_CLASSIFICATION ( #34, ( #159 ) ) ;
#39 = EDGE_LOOP ( 'NONE', ( #109, #124, #50, #71 ) ) ;
#40 = COORDINATED_UNIVERSAL_TIME_OFFSET ( 5, 0, .BEHIND. ) ;
#41 = FACE_OUTER_BOUND ( 'NONE', #169, .T. ) ;
#42 = CYLINDRICAL_SURFACE ( 'NONE', #47, 12.50000000000000000 ) ;
#43 = CALENDAR_DATE ( 2022, 29, 3 ) ;
#44 = CALENDAR_DATE ( 2022, 29, 3 ) ;
#45 = EDGE_CURVE ( 'NONE', #138, #37, #49, .T. ) ;
#46 = CC_DESIGN_DATE_AND_TIME_ASSIGNMENT ( #146, #20, ( #77 ) ) ;
#47 = AXIS2_PLACEMENT_3D ( 'NONE', #17, #114, #28 ) ;
#48 = PRODUCT ( 'Web Model 15467_21246', 'Web Model 15467_21246', '', ( #158 ) ) ;
#49 = CIRCLE ( 'NONE', #156, 12.50000000000000000 ) ;
#50 = ORIENTED_EDGE ( 'NONE', *, *, #45, .T. ) ;
#51 = PERSON_AND_ORGANIZATION ( #11, #32 ) ;
#52 =( NAMED_UNIT ( * ) SI_UNIT ( $, .STERADIAN. ) SOLID_ANGLE_UNIT ( ) );
#53 = LOCAL_TIME ( 16, 39, 54.00000000000000000, #9 ) ;
#54 = CARTESIAN_POINT ( 'NONE',  ( 12.50000000000000000, 1.530808498934191521E-15, 1.000000000000000000 ) ) ;
#55 = CARTESIAN_POINT ( 'NONE',  ( 12.50000000000000000, 1.530808498934191521E-15, -1.000000000000000000 ) ) ;
#56 = APPROVAL_STATUS ( 'not_yet_approved' ) ;
#57 = CC_DESIGN_DATE_AND_TIME_ASSIGNMENT ( #162, #101, ( #34 ) ) ;
#58 = PERSON_AND_ORGANIZATION ( #11, #32 ) ;
#59 = ORIENTED_EDGE ( 'NONE', *, *, #70, .T. ) ;
#60 = ORIENTED_EDGE ( 'NONE', *, *, #22, .T. ) ;
#61 = DIRECTION ( 'NONE',  ( 0.000000000000000000, 0.000000000000000000, 1.000000000000000000 ) ) ;
#62 = ADVANCED_FACE ( 'NONE', ( #148 ), #21, .T. ) ;
#63 = DIRECTION ( 'NONE',  ( 1.000000000000000000, 0.000000000000000000, -0.000000000000000000 ) ) ;
#64 = DIRECTION ( 'NONE',  ( 1.000000000000000000, 0.000000000000000000, 0.000000000000000000 ) ) ;
#65 = CARTESIAN_POINT ( 'NONE',  ( 0.000000000000000000, 0.000000000000000000, 0.000000000000000000 ) ) ;
#66 = PERSON_AND_ORGANIZATION ( #11, #32 ) ;
#67 = VECTOR ( 'NONE', #18, 1000.000000000000000 ) ;
#68 = ADVANCED_FACE ( 'NONE', ( #41 ), #42, .T. ) ;
#69 = PERSON_AND_ORGANIZATION ( #11, #32 ) ;
#70 = EDGE_CURVE ( 'NONE', #73, #37, #127, .T. ) ;
#71 = ORIENTED_EDGE ( 'NONE', *, *, #70, .F. ) ;
#72 = CIRCLE ( 'NONE', #121, 12.50000000000000000 ) ;
#73 = VERTEX_POINT ( 'NONE', #112 ) ;
#74 = UNCERTAINTY_MEASURE_WITH_UNIT (LENGTH_MEASURE( 1.000000000000000082E-05 ), #172, 'distance_accuracy_value', 'NONE');
#75 = DIRECTION ( 'NONE',  ( 1.000000000000000000, 0.000000000000000000, -0.000000000000000000 ) ) ;
#76 = ADVANCED_FACE ( 'NONE', ( #126 ), #144, .T. ) ;
#77 = PRODUCT_DEFINITION ( 'UNKNOWN', '', #159, #13 ) ;
#78 = DIRECTION ( 'NONE',  ( 1.000000000000000000, 0.000000000000000000, 0.000000000000000000 ) ) ;
#79 = LOCAL_TIME ( 16, 39, 54.00000000000000000, #80 ) ;
#80 = COORDINATED_UNIVERSAL_TIME_OFFSET ( 5, 0, .BEHIND. ) ;
#81 = CARTESIAN_POINT ( 'NONE',  ( -12.50000000000000000, 0.000000000000000000, 1.000000000000000000 ) ) ;
#82 = AXIS2_PLACEMENT_3D ( 'NONE', #89, #24, #75 ) ;
#83 = APPROVAL_PERSON_ORGANIZATION ( #104, #23, #2 ) ;
#84 = DIRECTION ( 'NONE',  ( 1.000000000000000000, 0.000000000000000000, 0.000000000000000000 ) ) ;
#85 = MANIFOLD_SOLID_BREP ( 'Boss-Extrude1', #142 ) ;
#86 = SHAPE_DEFINITION_REPRESENTATION ( #118, #145 ) ;
#87 = APPROVAL_DATE_TIME ( #106, #171 ) ;
#88 = CC_DESIGN_PERSON_AND_ORGANIZATION_ASSIGNMENT ( #58, #165, ( #34 ) ) ;
#89 = CARTESIAN_POINT ( 'NONE',  ( 0.000000000000000000, 0.000000000000000000, -1.000000000000000000 ) ) ;
#90 = FACE_OUTER_BOUND ( 'NONE', #91, .T. ) ;
#91 = EDGE_LOOP ( 'NONE', ( #123, #167 ) ) ;
#92 = APPLICATION_CONTEXT ( 'configuration controlled 3d designs of mechanical parts and assemblies' ) ;
#93 = ORIENTED_EDGE ( 'NONE', *, *, #129, .F. ) ;
#94 = CC_DESIGN_PERSON_AND_ORGANIZATION_ASSIGNMENT ( #155, #130, ( #48 ) ) ;
#95 = DIRECTION ( 'NONE',  ( -0.000000000000000000, -0.000000000000000000, -1.000000000000000000 ) ) ;
#96 = AXIS2_PLACEMENT_3D ( 'NONE', #122, #140, #99 ) ;
#97 = APPROVAL_DATE_TIME ( #111, #119 ) ;
#98 = DIRECTION ( 'NONE',  ( 0.000000000000000000, 0.000000000000000000, 1.000000000000000000 ) ) ;
#99 = DIRECTION ( 'NONE',  ( -1.000000000000000000, 0.000000000000000000, 0.000000000000000000 ) ) ;
#100 = DIRECTION ( 'NONE',  ( 0.000000000000000000, 0.000000000000000000, 1.000000000000000000 ) ) ;
#101 = DATE_TIME_ROLE ( 'classification_date' ) ;
#102 = EDGE_CURVE ( 'NONE', #37, #138, #157, .T. ) ;
#103 = SECURITY_CLASSIFICATION_LEVEL ( 'unclassified' ) ;
#104 = PERSON_AND_ORGANIZATION ( #11, #32 ) ;
#105 = CC_DESIGN_APPROVAL ( #23, ( #34 ) ) ;
#106 = DATE_AND_TIME ( #43, #163 ) ;
#107 = LOCAL_TIME ( 16, 39, 54.00000000000000000, #174 ) ;
#108 = ORIENTED_EDGE ( 'NONE', *, *, #102, .T. ) ;
#109 = ORIENTED_EDGE ( 'NONE', *, *, #141, .F. ) ;
#110 = CARTESIAN_POINT ( 'NONE',  ( -12.50000000000000000, 0.000000000000000000, -1.000000000000000000 ) ) ;
#111 = DATE_AND_TIME ( #152, #135 ) ;
#112 = CARTESIAN_POINT ( 'NONE',  ( -12.50000000000000000, 0.000000000000000000, 1.000000000000000000 ) ) ;
#113 = CC_DESIGN_APPROVAL ( #119, ( #77 ) ) ;
#114 = DIRECTION ( 'NONE',  ( -0.000000000000000000, -0.000000000000000000, -1.000000000000000000 ) ) ;
#115 = APPROVAL_ROLE ( '' ) ;
#116 = DATE_AND_TIME ( #131, #53 ) ;
#117 = AXIS2_PLACEMENT_3D ( 'NONE', #65, #30, #84 ) ;
#118 = PRODUCT_DEFINITION_SHAPE ( 'NONE', 'NONE',  #77 ) ;
#119 = APPROVAL ( #56, 'UNSPECIFIED' ) ;
#120 = DIRECTION ( 'NONE',  ( 1.000000000000000000, 0.000000000000000000, 0.000000000000000000 ) ) ;
#121 = AXIS2_PLACEMENT_3D ( 'NONE', #173, #98, #64 ) ;
#122 = CARTESIAN_POINT ( 'NONE',  ( 0.000000000000000000, 0.000000000000000000, 1.000000000000000000 ) ) ;
#123 = ORIENTED_EDGE ( 'NONE', *, *, #102, .F. ) ;
#124 = ORIENTED_EDGE ( 'NONE', *, *, #129, .T. ) ;
#125 = DIRECTION ( 'NONE',  ( 1.000000000000000000, 0.000000000000000000, 0.000000000000000000 ) ) ;
#126 = FACE_OUTER_BOUND ( 'NONE', #150, .T. ) ;
#127 = LINE ( 'NONE', #81, #151 ) ;
#128 = APPLICATION_PROTOCOL_DEFINITION ( 'international standard', 'config_control_design', 1994, #4 ) ;
#129 = EDGE_CURVE ( 'NONE', #149, #138, #19, .T. ) ;
#130 = PERSON_AND_ORGANIZATION_ROLE ( 'design_owner' ) ;
#131 = CALENDAR_DATE ( 2022, 29, 3 ) ;
#132 = APPROVAL_STATUS ( 'not_yet_approved' ) ;
#133 = APPROVAL_ROLE ( '' ) ;
#134 = AXIS2_PLACEMENT_3D ( 'NONE', #16, #61, #125 ) ;
#135 = LOCAL_TIME ( 16, 39, 54.00000000000000000, #40 ) ;
#136 = PERSON_AND_ORGANIZATION_ROLE ( 'creator' ) ;
#137 = CC_DESIGN_PERSON_AND_ORGANIZATION_ASSIGNMENT ( #69, #136, ( #159 ) ) ;
#138 = VERTEX_POINT ( 'NONE', #55 ) ;
#139 = APPROVAL_PERSON_ORGANIZATION ( #51, #119, #115 ) ;
#140 = DIRECTION ( 'NONE',  ( -0.000000000000000000, -0.000000000000000000, -1.000000000000000000 ) ) ;
#141 = EDGE_CURVE ( 'NONE', #149, #73, #72, .T. ) ;
#142 = CLOSED_SHELL ( 'NONE', ( #62, #68, #76, #15 ) ) ;
#143 = CARTESIAN_POINT ( 'NONE',  ( 12.50000000000000000, 1.530808498934191521E-15, 1.000000000000000000 ) ) ;
#144 = PLANE ( 'NONE',  #147 ) ;
#145 = ADVANCED_BREP_SHAPE_REPRESENTATION ( 'Web Model 15467_21246', ( #85, #117 ), #8 ) ;
#146 = DATE_AND_TIME ( #160, #79 ) ;
#147 = AXIS2_PLACEMENT_3D ( 'NONE', #31, #100, #63 ) ;
#148 = FACE_OUTER_BOUND ( 'NONE', #39, .T. ) ;
#149 = VERTEX_POINT ( 'NONE', #54 ) ;
#150 = EDGE_LOOP ( 'NONE', ( #60, #36 ) ) ;
#151 = VECTOR ( 'NONE', #95, 1000.000000000000000 ) ;
#152 = CALENDAR_DATE ( 2022, 29, 3 ) ;
#153 = CC_DESIGN_PERSON_AND_ORGANIZATION_ASSIGNMENT ( #10, #33, ( #159 ) ) ;
#154 = PERSON_AND_ORGANIZATION ( #11, #32 ) ;
#155 = PERSON_AND_ORGANIZATION ( #11, #32 ) ;
#156 = AXIS2_PLACEMENT_3D ( 'NONE', #170, #12, #120 ) ;
#157 = CIRCLE ( 'NONE', #14, 12.50000000000000000 ) ;
#158 = MECHANICAL_CONTEXT ( 'NONE', #4, 'mechanical' ) ;
#159 = PRODUCT_DEFINITION_FORMATION_WITH_SPECIFIED_SOURCE ( 'ANY', '', #48, .NOT_KNOWN. ) ;
#160 = CALENDAR_DATE ( 2022, 29, 3 ) ;
#161 = APPROVAL_DATE_TIME ( #116, #23 ) ;
#162 = DATE_AND_TIME ( #44, #107 ) ;
#163 = LOCAL_TIME ( 16, 39, 54.00000000000000000, #175 ) ;
#164 = APPROVAL_STATUS ( 'not_yet_approved' ) ;
#165 = PERSON_AND_ORGANIZATION_ROLE ( 'classification_officer' ) ;
#166 = ORIENTED_EDGE ( 'NONE', *, *, #22, .F. ) ;
#167 = ORIENTED_EDGE ( 'NONE', *, *, #45, .F. ) ;
#168 = APPROVAL_PERSON_ORGANIZATION ( #66, #171, #133 ) ;
#169 = EDGE_LOOP ( 'NONE', ( #93, #166, #59, #108 ) ) ;
#170 = CARTESIAN_POINT ( 'NONE',  ( 0.000000000000000000, 0.000000000000000000, -1.000000000000000000 ) ) ;
#171 = APPROVAL ( #132, 'UNSPECIFIED' ) ;
#172 =( LENGTH_UNIT ( ) NAMED_UNIT ( * ) SI_UNIT ( .MILLI., .METRE. ) );
#173 = CARTESIAN_POINT ( 'NONE',  ( 0.000000000000000000, 0.000000000000000000, 1.000000000000000000 ) ) ;
#174 = COORDINATED_UNIVERSAL_TIME_OFFSET ( 5, 0, .BEHIND. ) ;
#175 = COORDINATED_UNIVERSAL_TIME_OFFSET ( 5, 0, .BEHIND. ) ;
ENDSEC;
END-ISO-10303-21;
