ISO-10303-21;
HEADER;
FILE_DESCRIPTION (( 'STEP AP203' ),
    '1' );
FILE_NAME ('Web Model 11876_11876.step',
    '2019-01-02T18:25:25',
    ( '' ),
    ( '' ),
    'SwSTEP 2.0',
    'SolidWorks 2016',
    '' );
FILE_SCHEMA (( 'CONFIG_CONTROL_DESIGN' ));
ENDSEC;

DATA;
#1 = APPROVAL_PERSON_ORGANIZATION ( #156, #74, #109 ) ;
#2 = DATE_AND_TIME ( #117, #174 ) ;
#3 = CC_DESIGN_PERSON_AND_ORGANIZATION_ASSIGNMENT ( #114, #86, ( #140 ) ) ;
#4 = ORGANIZATION ( 'UNSPECIFIED', 'UNSPECIFIED', '' ) ;
#5 = ORIENTED_EDGE ( 'NONE', *, *, #242, .T. ) ;
#6 = EDGE_CURVE ( 'NONE', #92, #42, #91, .T. ) ;
#7 = CIRCLE ( 'NONE', #64, 12.45000000000000300 ) ;
#8 = FACE_OUTER_BOUND ( 'NONE', #57, .T. ) ;
#9 = ORIENTED_EDGE ( 'NONE', *, *, #134, .T. ) ;
#10 = AXIS2_PLACEMENT_3D ( 'NONE', #251, #106, #56 ) ;
#11 = DIRECTION ( 'NONE',  ( 0.0000000000000000000, 0.0000000000000000000, -1.000000000000000000 ) ) ;
#12 = SHAPE_DEFINITION_REPRESENTATION ( #135, #180 ) ;
#13 = ADVANCED_FACE ( 'NONE', ( #25 ), #245, .T. ) ;
#14 = DIRECTION ( 'NONE',  ( 0.0000000000000000000, 0.0000000000000000000, -1.000000000000000000 ) ) ;
#15 = EDGE_CURVE ( 'NONE', #268, #108, #22, .T. ) ;
#16 = VECTOR ( 'NONE', #232, 1000.000000000000000 ) ;
#17 = DIRECTION ( 'NONE',  ( -1.000000000000000000, 0.0000000000000000000, 0.0000000000000000000 ) ) ;
#18 = ORIENTED_EDGE ( 'NONE', *, *, #240, .T. ) ;
#19 = ADVANCED_FACE ( 'NONE', ( #165 ), #231, .T. ) ;
#20 = APPLICATION_PROTOCOL_DEFINITION ( 'international standard', 'config_control_design', 1994, #194 ) ;
#21 = EDGE_CURVE ( 'NONE', #203, #179, #190, .T. ) ;
#22 = LINE ( 'NONE', #119, #222 ) ;
#23 = APPROVAL_STATUS ( 'not_yet_approved' ) ;
#24 = APPROVAL_ROLE ( '' ) ;
#25 = FACE_OUTER_BOUND ( 'NONE', #160, .T. ) ;
#26 = VERTEX_POINT ( 'NONE', #244 ) ;
#27 = CIRCLE ( 'NONE', #263, 12.50000000000000000 ) ;
#28 = CIRCLE ( 'NONE', #154, 12.45000000000000300 ) ;
#29 = ORIENTED_EDGE ( 'NONE', *, *, #205, .T. ) ;
#30 = PRODUCT_DEFINITION ( 'UNKNOWN', '', #185, #161 ) ;
#31 = COORDINATED_UNIVERSAL_TIME_OFFSET ( 5, 0, .BEHIND. ) ;
#32 = EDGE_CURVE ( 'NONE', #26, #104, #7, .T. ) ;
#33 = CARTESIAN_POINT ( 'NONE',  ( 0.5000000000000000000, 0.0000000000000000000, 0.0000000000000000000 ) ) ;
#34 = DIRECTION ( 'NONE',  ( 1.000000000000000000, 0.0000000000000000000, 0.0000000000000000000 ) ) ;
#35 = CARTESIAN_POINT ( 'NONE',  ( 0.5000000000000000000, 0.0000000000000000000, 0.0000000000000000000 ) ) ;
#36 = LOCAL_TIME ( 13, 25, 25.00000000000000000, #211 ) ;
#37 = ORIENTED_EDGE ( 'NONE', *, *, #95, .T. ) ;
#38 = CARTESIAN_POINT ( 'NONE',  ( 0.4500000000000072300, 1.530808498934191500E-015, -12.50000000000000000 ) ) ;
#39 = ADVANCED_FACE ( 'NONE', ( #112 ), #137, .T. ) ;
#40 = DATE_AND_TIME ( #152, #136 ) ;
#41 = DIRECTION ( 'NONE',  ( 0.0000000000000000000, 0.0000000000000000000, -1.000000000000000000 ) ) ;
#42 = VERTEX_POINT ( 'NONE', #250 ) ;
#43 = CARTESIAN_POINT ( 'NONE',  ( 0.5000000000000000000, 0.0000000000000000000, 0.0000000000000000000 ) ) ;
#44 = APPROVAL_STATUS ( 'not_yet_approved' ) ;
#45 = PERSON_AND_ORGANIZATION_ROLE ( 'design_supplier' ) ;
#46 = APPROVAL_DATE_TIME ( #186, #196 ) ;
#47 = APPROVAL_DATE_TIME ( #2, #93 ) ;
#48 = CC_DESIGN_PERSON_AND_ORGANIZATION_ASSIGNMENT ( #220, #65, ( #185 ) ) ;
#49 = LOCAL_TIME ( 13, 25, 25.00000000000000000, #31 ) ;
#50 = AXIS2_PLACEMENT_3D ( 'NONE', #248, #206, #100 ) ;
#51 = DATE_AND_TIME ( #197, #49 ) ;
#52 = CONICAL_SURFACE ( 'NONE', #98, 12.45000000000000300, 0.7853981633975003500 ) ;
#53 = CARTESIAN_POINT ( 'NONE',  ( 0.5000000000000000000, 1.530808498934191500E-015, -12.50000000000000000 ) ) ;
#54 = ORIENTED_EDGE ( 'NONE', *, *, #21, .T. ) ;
#55 = ADVANCED_FACE ( 'NONE', ( #71 ), #52, .T. ) ;
#56 = DIRECTION ( 'NONE',  ( 0.0000000000000000000, 0.0000000000000000000, 1.000000000000000000 ) ) ;
#57 = EDGE_LOOP ( 'NONE', ( #94, #184, #241, #99 ) ) ;
#58 = CARTESIAN_POINT ( 'NONE',  ( -0.4500000000000002900, 0.0000000000000000000, 0.0000000000000000000 ) ) ;
#59 = CC_DESIGN_DATE_AND_TIME_ASSIGNMENT ( #51, #219, ( #140 ) ) ;
#60 = CARTESIAN_POINT ( 'NONE',  ( 0.4500000000000072300, 0.0000000000000000000, 0.0000000000000000000 ) ) ;
#61 = CIRCLE ( 'NONE', #275, 12.50000000000000000 ) ;
#62 = CLOSED_SHELL ( 'NONE', ( #80, #55, #19, #39, #273, #85, #101, #13 ) ) ;
#63 = PERSON_AND_ORGANIZATION_ROLE ( 'creator' ) ;
#64 = AXIS2_PLACEMENT_3D ( 'NONE', #163, #164, #234 ) ;
#65 = PERSON_AND_ORGANIZATION_ROLE ( 'creator' ) ;
#66 = DIRECTION ( 'NONE',  ( -0.7071067811865107100, 0.0000000000000000000, 0.7071067811865843200 ) ) ;
#67 = AXIS2_PLACEMENT_3D ( 'NONE', #82, #102, #84 ) ;
#68 = VECTOR ( 'NONE', #249, 1000.000000000000000 ) ;
#69 = EDGE_LOOP ( 'NONE', ( #213, #18, #216, #199 ) ) ;
#70 =( GEOMETRIC_REPRESENTATION_CONTEXT ( 3 ) GLOBAL_UNCERTAINTY_ASSIGNED_CONTEXT ( ( #87 ) ) GLOBAL_UNIT_ASSIGNED_CONTEXT ( ( #90, #193, #217 ) ) REPRESENTATION_CONTEXT ( 'NONE', 'WORKASPACE' ) );
#71 = FACE_OUTER_BOUND ( 'NONE', #69, .T. ) ;
#72 = DIRECTION ( 'NONE',  ( 1.000000000000000000, -0.0000000000000000000, -0.0000000000000000000 ) ) ;
#73 = APPROVAL_PERSON_ORGANIZATION ( #237, #93, #24 ) ;
#74 = APPROVAL ( #111, 'UNSPECIFIED' ) ;
#75 = ORIENTED_EDGE ( 'NONE', *, *, #123, .T. ) ;
#76 = AXIS2_PLACEMENT_3D ( 'NONE', #58, #274, #215 ) ;
#77 = DIRECTION ( 'NONE',  ( 1.000000000000000000, -0.0000000000000000000, -0.0000000000000000000 ) ) ;
#78 = CARTESIAN_POINT ( 'NONE',  ( -0.4500000000000002900, 0.0000000000000000000, 12.50000000000000000 ) ) ;
#79 = AXIS2_PLACEMENT_3D ( 'NONE', #271, #77, #14 ) ;
#80 = ADVANCED_FACE ( 'NONE', ( #8 ), #270, .T. ) ;
#81 = APPROVAL_PERSON_ORGANIZATION ( #252, #196, #169 ) ;
#82 = CARTESIAN_POINT ( 'NONE',  ( 0.4500000000000072300, 0.0000000000000000000, 0.0000000000000000000 ) ) ;
#83 = ORIENTED_EDGE ( 'NONE', *, *, #138, .F. ) ;
#84 = DIRECTION ( 'NONE',  ( 0.0000000000000000000, 0.0000000000000000000, -1.000000000000000000 ) ) ;
#85 = ADVANCED_FACE ( 'NONE', ( #198 ), #144, .F. ) ;
#86 = PERSON_AND_ORGANIZATION_ROLE ( 'classification_officer' ) ;
#87 = UNCERTAINTY_MEASURE_WITH_UNIT (LENGTH_MEASURE( 1.000000000000000100E-005 ), #90, 'distance_accuracy_value', 'NONE');
#88 = APPLICATION_CONTEXT ( 'configuration controlled 3d designs of mechanical parts and assemblies' ) ;
#89 = COORDINATED_UNIVERSAL_TIME_OFFSET ( 5, 0, .BEHIND. ) ;
#90 =( LENGTH_UNIT ( ) NAMED_UNIT ( * ) SI_UNIT ( .MILLI., .METRE. ) );
#91 = LINE ( 'NONE', #53, #68 ) ;
#92 = VERTEX_POINT ( 'NONE', #38 ) ;
#93 = APPROVAL ( #44, 'UNSPECIFIED' ) ;
#94 = ORIENTED_EDGE ( 'NONE', *, *, #123, .F. ) ;
#95 = EDGE_CURVE ( 'NONE', #26, #42, #142, .T. ) ;
#96 = AXIS2_PLACEMENT_3D ( 'NONE', #204, #246, #11 ) ;
#97 = CARTESIAN_POINT ( 'NONE',  ( -0.4500000000000002900, 0.0000000000000000000, 0.0000000000000000000 ) ) ;
#98 = AXIS2_PLACEMENT_3D ( 'NONE', #33, #17, #126 ) ;
#99 = ORIENTED_EDGE ( 'NONE', *, *, #95, .F. ) ;
#100 = DIRECTION ( 'NONE',  ( 0.0000000000000000000, 0.0000000000000000000, 1.000000000000000000 ) ) ;
#101 = ADVANCED_FACE ( 'NONE', ( #120 ), #183, .T. ) ;
#102 = DIRECTION ( 'NONE',  ( -1.000000000000000000, 0.0000000000000000000, 0.0000000000000000000 ) ) ;
#103 = PERSON_AND_ORGANIZATION ( #175, #4 ) ;
#104 = VERTEX_POINT ( 'NONE', #209 ) ;
#105 = CARTESIAN_POINT ( 'NONE',  ( -0.5000000000000000000, 0.0000000000000000000, 0.0000000000000000000 ) ) ;
#106 = DIRECTION ( 'NONE',  ( -1.000000000000000000, 0.0000000000000000000, 0.0000000000000000000 ) ) ;
#107 = CARTESIAN_POINT ( 'NONE',  ( -0.4500000000000002900, 1.530808498934191500E-015, 12.50000000000000000 ) ) ;
#108 = VERTEX_POINT ( 'NONE', #78 ) ;
#109 = APPROVAL_ROLE ( '' ) ;
#110 = AXIS2_PLACEMENT_3D ( 'NONE', #105, #34, #143 ) ;
#111 = APPROVAL_STATUS ( 'not_yet_approved' ) ;
#112 = FACE_OUTER_BOUND ( 'NONE', #207, .T. ) ;
#113 = CC_DESIGN_APPROVAL ( #93, ( #30 ) ) ;
#114 = PERSON_AND_ORGANIZATION ( #175, #4 ) ;
#115 = ORIENTED_EDGE ( 'NONE', *, *, #15, .F. ) ;
#116 = CC_DESIGN_PERSON_AND_ORGANIZATION_ASSIGNMENT ( #265, #63, ( #30 ) ) ;
#117 = CALENDAR_DATE ( 2019, 2, 1 ) ;
#118 = ORIENTED_EDGE ( 'NONE', *, *, #32, .F. ) ;
#119 = CARTESIAN_POINT ( 'NONE',  ( 0.5000000000000000000, 0.0000000000000000000, 12.50000000000000000 ) ) ;
#120 = FACE_OUTER_BOUND ( 'NONE', #162, .T. ) ;
#121 = ORIENTED_EDGE ( 'NONE', *, *, #15, .T. ) ;
#122 = DIRECTION ( 'NONE',  ( -1.000000000000000000, 0.0000000000000000000, 0.0000000000000000000 ) ) ;
#123 = EDGE_CURVE ( 'NONE', #104, #26, #28, .T. ) ;
#124 = COORDINATED_UNIVERSAL_TIME_OFFSET ( 5, 0, .BEHIND. ) ;
#125 = AXIS2_PLACEMENT_3D ( 'NONE', #97, #72, #228 ) ;
#126 = DIRECTION ( 'NONE',  ( 0.0000000000000000000, 0.0000000000000000000, 1.000000000000000000 ) ) ;
#127 = CARTESIAN_POINT ( 'NONE',  ( 0.5000000000000000000, 1.527746881936323400E-015, -12.45000000000000300 ) ) ;
#128 = CIRCLE ( 'NONE', #67, 12.50000000000000000 ) ;
#129 = CARTESIAN_POINT ( 'NONE',  ( -0.4500000000000002900, 0.0000000000000000000, 0.0000000000000000000 ) ) ;
#130 = CC_DESIGN_DATE_AND_TIME_ASSIGNMENT ( #202, #238, ( #30 ) ) ;
#131 = PLANE ( 'NONE',  #227 ) ;
#132 = DIRECTION ( 'NONE',  ( 0.0000000000000000000, 0.0000000000000000000, -1.000000000000000000 ) ) ;
#133 = FACE_OUTER_BOUND ( 'NONE', #223, .T. ) ;
#134 = EDGE_CURVE ( 'NONE', #268, #92, #27, .T. ) ;
#135 = PRODUCT_DEFINITION_SHAPE ( 'NONE', 'NONE',  #30 ) ;
#136 = LOCAL_TIME ( 13, 25, 25.00000000000000000, #89 ) ;
#137 = CYLINDRICAL_SURFACE ( 'NONE', #50, 12.50000000000000000 ) ;
#138 = EDGE_CURVE ( 'NONE', #104, #108, #181, .T. ) ;
#139 = CARTESIAN_POINT ( 'NONE',  ( 0.5000000000000000000, 0.0000000000000000000, 0.0000000000000000000 ) ) ;
#140 = SECURITY_CLASSIFICATION ( '', '', #236 ) ;
#141 = PERSON_AND_ORGANIZATION ( #175, #4 ) ;
#142 = LINE ( 'NONE', #187, #16 ) ;
#143 = DIRECTION ( 'NONE',  ( 0.0000000000000000000, 0.0000000000000000000, -1.000000000000000000 ) ) ;
#144 = PLANE ( 'NONE',  #110 ) ;
#145 = VECTOR ( 'NONE', #208, 1000.000000000000000 ) ;
#146 = DIRECTION ( 'NONE',  ( 0.0000000000000000000, 0.0000000000000000000, -1.000000000000000000 ) ) ;
#147 = EDGE_LOOP ( 'NONE', ( #9, #226, #157, #115 ) ) ;
#148 = DIRECTION ( 'NONE',  ( 0.7071067811865597900, 8.659560562354782500E-017, 0.7071067811865352500 ) ) ;
#149 = DIRECTION ( 'NONE',  ( 0.0000000000000000000, 0.0000000000000000000, 1.000000000000000000 ) ) ;
#150 = DIRECTION ( 'NONE',  ( 1.000000000000000000, -0.0000000000000000000, -0.0000000000000000000 ) ) ;
#151 = PRODUCT ( 'Web Model 11876_11876', 'Web Model 11876_11876', '', ( #171 ) ) ;
#152 = CALENDAR_DATE ( 2019, 2, 1 ) ;
#153 = LINE ( 'NONE', #191, #145 ) ;
#154 = AXIS2_PLACEMENT_3D ( 'NONE', #212, #255, #146 ) ;
#155 = ORIENTED_EDGE ( 'NONE', *, *, #178, .F. ) ;
#156 = PERSON_AND_ORGANIZATION ( #175, #4 ) ;
#157 = ORIENTED_EDGE ( 'NONE', *, *, #192, .T. ) ;
#158 = CC_DESIGN_APPROVAL ( #74, ( #140 ) ) ;
#159 = VECTOR ( 'NONE', #66, 1000.000000000000000 ) ;
#160 = EDGE_LOOP ( 'NONE', ( #83, #118, #37, #166 ) ) ;
#161 = DESIGN_CONTEXT ( 'detailed design', #194, 'design' ) ;
#162 = EDGE_LOOP ( 'NONE', ( #258, #170, #272, #155 ) ) ;
#163 = CARTESIAN_POINT ( 'NONE',  ( -0.5000000000000000000, 0.0000000000000000000, 0.0000000000000000000 ) ) ;
#164 = DIRECTION ( 'NONE',  ( -1.000000000000000000, -0.0000000000000000000, -0.0000000000000000000 ) ) ;
#165 = FACE_OUTER_BOUND ( 'NONE', #147, .T. ) ;
#166 = ORIENTED_EDGE ( 'NONE', *, *, #242, .F. ) ;
#167 = AXIS2_PLACEMENT_3D ( 'NONE', #35, #188, #257 ) ;
#168 = VECTOR ( 'NONE', #148, 1000.000000000000000 ) ;
#169 = APPROVAL_ROLE ( '' ) ;
#170 = ORIENTED_EDGE ( 'NONE', *, *, #21, .F. ) ;
#171 = MECHANICAL_CONTEXT ( 'NONE', #88, 'mechanical' ) ;
#172 = CC_DESIGN_SECURITY_CLASSIFICATION ( #140, ( #185 ) ) ;
#173 = CALENDAR_DATE ( 2019, 2, 1 ) ;
#174 = LOCAL_TIME ( 13, 25, 25.00000000000000000, #124 ) ;
#175 = PERSON ( 'UNSPECIFIED', 'UNSPECIFIED', 'UNSPECIFIED', ('UNSPECIFIED'), ('UNSPECIFIED'), ('UNSPECIFIED') ) ;
#176 = DIRECTION ( 'NONE',  ( 1.000000000000000000, 0.0000000000000000000, 0.0000000000000000000 ) ) ;
#177 = CIRCLE ( 'NONE', #79, 12.50000000000000000 ) ;
#178 = EDGE_CURVE ( 'NONE', #92, #268, #128, .T. ) ;
#179 = VERTEX_POINT ( 'NONE', #127 ) ;
#180 = ADVANCED_BREP_SHAPE_REPRESENTATION ( 'Web Model 11876_11876', ( #225, #229 ), #70 ) ;
#181 = LINE ( 'NONE', #107, #168 ) ;
#182 = DIRECTION ( 'NONE',  ( -1.000000000000000000, -0.0000000000000000000, -0.0000000000000000000 ) ) ;
#183 = CONICAL_SURFACE ( 'NONE', #10, 12.45000000000000300, 0.7853981633975003500 ) ;
#184 = ORIENTED_EDGE ( 'NONE', *, *, #138, .T. ) ;
#185 = PRODUCT_DEFINITION_FORMATION_WITH_SPECIFIED_SOURCE ( 'ANY', '', #151, .NOT_KNOWN. ) ;
#186 = DATE_AND_TIME ( #173, #230 ) ;
#187 = CARTESIAN_POINT ( 'NONE',  ( -0.4500000000000002900, 0.0000000000000000000, -12.50000000000000000 ) ) ;
#188 = DIRECTION ( 'NONE',  ( 1.000000000000000000, 0.0000000000000000000, 0.0000000000000000000 ) ) ;
#189 = DIRECTION ( 'NONE',  ( 0.0000000000000000000, 0.0000000000000000000, -1.000000000000000000 ) ) ;
#190 = CIRCLE ( 'NONE', #96, 12.45000000000000300 ) ;
#191 = CARTESIAN_POINT ( 'NONE',  ( 0.5000000000000000000, 1.524685264938455200E-015, -12.45000000000000300 ) ) ;
#192 = EDGE_CURVE ( 'NONE', #42, #108, #177, .T. ) ;
#193 =( NAMED_UNIT ( * ) PLANE_ANGLE_UNIT ( ) SI_UNIT ( $, .RADIAN. ) );
#194 = APPLICATION_CONTEXT ( 'configuration controlled 3d designs of mechanical parts and assemblies' ) ;
#195 = DIRECTION ( 'NONE',  ( 1.000000000000000000, 0.0000000000000000000, 0.0000000000000000000 ) ) ;
#196 = APPROVAL ( #23, 'UNSPECIFIED' ) ;
#197 = CALENDAR_DATE ( 2019, 2, 1 ) ;
#198 = FACE_OUTER_BOUND ( 'NONE', #201, .T. ) ;
#199 = ORIENTED_EDGE ( 'NONE', *, *, #247, .F. ) ;
#200 = PRODUCT_RELATED_PRODUCT_CATEGORY ( 'detail', '', ( #151 ) ) ;
#201 = EDGE_LOOP ( 'NONE', ( #262, #75 ) ) ;
#202 = DATE_AND_TIME ( #261, #36 ) ;
#203 = VERTEX_POINT ( 'NONE', #269 ) ;
#204 = CARTESIAN_POINT ( 'NONE',  ( 0.5000000000000000000, 0.0000000000000000000, 0.0000000000000000000 ) ) ;
#205 = EDGE_CURVE ( 'NONE', #179, #203, #233, .T. ) ;
#206 = DIRECTION ( 'NONE',  ( -1.000000000000000000, -0.0000000000000000000, -0.0000000000000000000 ) ) ;
#207 = EDGE_LOOP ( 'NONE', ( #254, #264, #121, #5 ) ) ;
#208 = DIRECTION ( 'NONE',  ( -0.7071067811865107100, 8.659560562355384000E-017, -0.7071067811865843200 ) ) ;
#209 = CARTESIAN_POINT ( 'NONE',  ( -0.5000000000000000000, 1.527746881936323400E-015, 12.45000000000000300 ) ) ;
#210 = COORDINATED_UNIVERSAL_TIME_OFFSET ( 5, 0, .BEHIND. ) ;
#211 = COORDINATED_UNIVERSAL_TIME_OFFSET ( 5, 0, .BEHIND. ) ;
#212 = CARTESIAN_POINT ( 'NONE',  ( -0.5000000000000000000, 0.0000000000000000000, 0.0000000000000000000 ) ) ;
#213 = ORIENTED_EDGE ( 'NONE', *, *, #205, .F. ) ;
#214 = CC_DESIGN_APPROVAL ( #196, ( #185 ) ) ;
#215 = DIRECTION ( 'NONE',  ( 0.0000000000000000000, 0.0000000000000000000, -1.000000000000000000 ) ) ;
#216 = ORIENTED_EDGE ( 'NONE', *, *, #134, .F. ) ;
#217 =( NAMED_UNIT ( * ) SI_UNIT ( $, .STERADIAN. ) SOLID_ANGLE_UNIT ( ) );
#218 = AXIS2_PLACEMENT_3D ( 'NONE', #139, #182, #267 ) ;
#219 = DATE_TIME_ROLE ( 'classification_date' ) ;
#220 = PERSON_AND_ORGANIZATION ( #175, #4 ) ;
#221 = PERSON_AND_ORGANIZATION_ROLE ( 'design_owner' ) ;
#222 = VECTOR ( 'NONE', #266, 1000.000000000000000 ) ;
#223 = EDGE_LOOP ( 'NONE', ( #54, #29 ) ) ;
#224 = APPROVAL_DATE_TIME ( #40, #74 ) ;
#225 = MANIFOLD_SOLID_BREP ( 'Chamfer1', #62 ) ;
#226 = ORIENTED_EDGE ( 'NONE', *, *, #6, .T. ) ;
#227 = AXIS2_PLACEMENT_3D ( 'NONE', #43, #195, #132 ) ;
#228 = DIRECTION ( 'NONE',  ( 0.0000000000000000000, 0.0000000000000000000, -1.000000000000000000 ) ) ;
#229 = AXIS2_PLACEMENT_3D ( 'NONE', #260, #149, #176 ) ;
#230 = LOCAL_TIME ( 13, 25, 25.00000000000000000, #210 ) ;
#231 = CYLINDRICAL_SURFACE ( 'NONE', #218, 12.50000000000000000 ) ;
#232 = DIRECTION ( 'NONE',  ( 0.7071067811865597900, 0.0000000000000000000, -0.7071067811865352500 ) ) ;
#233 = CIRCLE ( 'NONE', #167, 12.45000000000000300 ) ;
#234 = DIRECTION ( 'NONE',  ( 0.0000000000000000000, 0.0000000000000000000, -1.000000000000000000 ) ) ;
#235 = APPLICATION_PROTOCOL_DEFINITION ( 'international standard', 'config_control_design', 1994, #88 ) ;
#236 = SECURITY_CLASSIFICATION_LEVEL ( 'unclassified' ) ;
#237 = PERSON_AND_ORGANIZATION ( #175, #4 ) ;
#238 = DATE_TIME_ROLE ( 'creation_date' ) ;
#239 = CARTESIAN_POINT ( 'NONE',  ( 0.5000000000000000000, 0.0000000000000000000, 12.45000000000000300 ) ) ;
#240 = EDGE_CURVE ( 'NONE', #179, #92, #153, .T. ) ;
#241 = ORIENTED_EDGE ( 'NONE', *, *, #192, .F. ) ;
#242 = EDGE_CURVE ( 'NONE', #108, #42, #61, .T. ) ;
#243 = LINE ( 'NONE', #239, #159 ) ;
#244 = CARTESIAN_POINT ( 'NONE',  ( -0.5000000000000000000, 0.0000000000000000000, -12.45000000000000300 ) ) ;
#245 = CONICAL_SURFACE ( 'NONE', #125, 12.50000000000000000, 0.7853981633974309600 ) ;
#246 = DIRECTION ( 'NONE',  ( 1.000000000000000000, 0.0000000000000000000, 0.0000000000000000000 ) ) ;
#247 = EDGE_CURVE ( 'NONE', #203, #268, #243, .T. ) ;
#248 = CARTESIAN_POINT ( 'NONE',  ( 0.5000000000000000000, 0.0000000000000000000, 0.0000000000000000000 ) ) ;
#249 = DIRECTION ( 'NONE',  ( -1.000000000000000000, -0.0000000000000000000, -0.0000000000000000000 ) ) ;
#250 = CARTESIAN_POINT ( 'NONE',  ( -0.4500000000000002900, 1.530808498934191500E-015, -12.50000000000000000 ) ) ;
#251 = CARTESIAN_POINT ( 'NONE',  ( 0.5000000000000000000, 0.0000000000000000000, 0.0000000000000000000 ) ) ;
#252 = PERSON_AND_ORGANIZATION ( #175, #4 ) ;
#253 = CC_DESIGN_PERSON_AND_ORGANIZATION_ASSIGNMENT ( #141, #45, ( #185 ) ) ;
#254 = ORIENTED_EDGE ( 'NONE', *, *, #6, .F. ) ;
#255 = DIRECTION ( 'NONE',  ( -1.000000000000000000, -0.0000000000000000000, -0.0000000000000000000 ) ) ;
#256 = CARTESIAN_POINT ( 'NONE',  ( 0.4500000000000072300, 0.0000000000000000000, 12.50000000000000000 ) ) ;
#257 = DIRECTION ( 'NONE',  ( 0.0000000000000000000, 0.0000000000000000000, -1.000000000000000000 ) ) ;
#258 = ORIENTED_EDGE ( 'NONE', *, *, #240, .F. ) ;
#259 = CC_DESIGN_PERSON_AND_ORGANIZATION_ASSIGNMENT ( #103, #221, ( #151 ) ) ;
#260 = CARTESIAN_POINT ( 'NONE',  ( 0.0000000000000000000, 0.0000000000000000000, 0.0000000000000000000 ) ) ;
#261 = CALENDAR_DATE ( 2019, 2, 1 ) ;
#262 = ORIENTED_EDGE ( 'NONE', *, *, #32, .T. ) ;
#263 = AXIS2_PLACEMENT_3D ( 'NONE', #60, #122, #189 ) ;
#264 = ORIENTED_EDGE ( 'NONE', *, *, #178, .T. ) ;
#265 = PERSON_AND_ORGANIZATION ( #175, #4 ) ;
#266 = DIRECTION ( 'NONE',  ( -1.000000000000000000, -0.0000000000000000000, -0.0000000000000000000 ) ) ;
#267 = DIRECTION ( 'NONE',  ( 0.0000000000000000000, 0.0000000000000000000, 1.000000000000000000 ) ) ;
#268 = VERTEX_POINT ( 'NONE', #256 ) ;
#269 = CARTESIAN_POINT ( 'NONE',  ( 0.5000000000000000000, 0.0000000000000000000, 12.45000000000000300 ) ) ;
#270 = CONICAL_SURFACE ( 'NONE', #76, 12.50000000000000000, 0.7853981633974309600 ) ;
#271 = CARTESIAN_POINT ( 'NONE',  ( -0.4500000000000002900, 0.0000000000000000000, 0.0000000000000000000 ) ) ;
#272 = ORIENTED_EDGE ( 'NONE', *, *, #247, .T. ) ;
#273 = ADVANCED_FACE ( 'NONE', ( #133 ), #131, .T. ) ;
#274 = DIRECTION ( 'NONE',  ( 1.000000000000000000, -0.0000000000000000000, -0.0000000000000000000 ) ) ;
#275 = AXIS2_PLACEMENT_3D ( 'NONE', #129, #150, #41 ) ;
ENDSEC;
END-ISO-10303-21;
