ISO-10303-21;
HEADER;
FILE_DESCRIPTION (( 'STEP AP203' ),
    '1' );
FILE_NAME ('Web Model 47947.STEP',
    '2017-01-31T15:21:05',
    ( '' ),
    ( '' ),
    'SwSTEP 2.0',
    'SolidWorks 2016',
    '' );
FILE_SCHEMA (( 'CONFIG_CONTROL_DESIGN' ));
ENDSEC;

DATA;
#1 = ORIENTED_EDGE ( 'NONE', *, *, #143, .F. ) ;
#2 = ORIENTED_EDGE ( 'NONE', *, *, #62, .T. ) ;
#3 = CC_DESIGN_APPROVAL ( #104, ( #234 ) ) ;
#4 = LINE ( 'NONE', #213, #8 ) ;
#5 = APPROVAL_ROLE ( '' ) ;
#6 = EDGE_CURVE ( 'NONE', #128, #82, #4, .T. ) ;
#7 = MECHANICAL_CONTEXT ( 'NONE', #45, 'mechanical' ) ;
#8 = VECTOR ( 'NONE', #79, 1000.000000000000000 ) ;
#9 = CARTESIAN_POINT ( 'NONE',  ( -25.00000000000000000, -25.00000000000000000, 0.0000000000000000000 ) ) ;
#10 = DIRECTION ( 'NONE',  ( 0.0000000000000000000, 0.0000000000000000000, 1.000000000000000000 ) ) ;
#11 = LOCAL_TIME ( 10, 21, 5.000000000000000000, #84 ) ;
#12 = CARTESIAN_POINT ( 'NONE',  ( -25.00000000000000000, -25.00000000000000000, 0.0000000000000000000 ) ) ;
#13 = PERSON_AND_ORGANIZATION ( #64, #67 ) ;
#14 = CARTESIAN_POINT ( 'NONE',  ( -25.00000000000000000, 25.00000000000000000, 4.000000000000000000 ) ) ;
#15 = DIRECTION ( 'NONE',  ( -1.000000000000000000, 0.0000000000000000000, 0.0000000000000000000 ) ) ;
#16 = PERSON_AND_ORGANIZATION ( #64, #67 ) ;
#17 = LINE ( 'NONE', #163, #203 ) ;
#18 = PRODUCT ( 'Web Model 47947', 'Web Model 47947', '', ( #7 ) ) ;
#19 = CARTESIAN_POINT ( 'NONE',  ( -25.00000000000000000, 25.00000000000000000, 4.000000000000000000 ) ) ;
#20 = ORIENTED_EDGE ( 'NONE', *, *, #6, .T. ) ;
#21 = CC_DESIGN_SECURITY_CLASSIFICATION ( #234, ( #222 ) ) ;
#22 = CARTESIAN_POINT ( 'NONE',  ( -25.00000000000000000, 25.00000000000000000, 4.000000000000000000 ) ) ;
#23 = PLANE ( 'NONE',  #50 ) ;
#24 = PERSON_AND_ORGANIZATION ( #64, #67 ) ;
#25 = PERSON_AND_ORGANIZATION ( #64, #67 ) ;
#26 = SECURITY_CLASSIFICATION_LEVEL ( 'unclassified' ) ;
#27 = PERSON_AND_ORGANIZATION ( #64, #67 ) ;
#28 = CC_DESIGN_PERSON_AND_ORGANIZATION_ASSIGNMENT ( #27, #208, ( #34 ) ) ;
#29 = DIRECTION ( 'NONE',  ( 0.0000000000000000000, -1.000000000000000000, 0.0000000000000000000 ) ) ;
#30 = FACE_OUTER_BOUND ( 'NONE', #78, .T. ) ;
#31 = SHAPE_DEFINITION_REPRESENTATION ( #224, #118 ) ;
#32 = ADVANCED_FACE ( 'NONE', ( #63 ), #165, .F. ) ;
#33 = CARTESIAN_POINT ( 'NONE',  ( 25.00000000000000000, 25.00000000000000000, 4.000000000000000000 ) ) ;
#34 = PRODUCT_DEFINITION ( 'UNKNOWN', '', #222, #193 ) ;
#35 = ADVANCED_FACE ( 'NONE', ( #227 ), #198, .F. ) ;
#36 = CARTESIAN_POINT ( 'NONE',  ( -25.00000000000000000, -25.00000000000000000, 4.000000000000000000 ) ) ;
#37 = VECTOR ( 'NONE', #29, 1000.000000000000000 ) ;
#38 = CARTESIAN_POINT ( 'NONE',  ( -25.00000000000000000, 25.00000000000000000, 4.000000000000000000 ) ) ;
#39 = VECTOR ( 'NONE', #61, 1000.000000000000000 ) ;
#40 = VERTEX_POINT ( 'NONE', #81 ) ;
#41 = LOCAL_TIME ( 10, 21, 5.000000000000000000, #160 ) ;
#42 = ORIENTED_EDGE ( 'NONE', *, *, #123, .T. ) ;
#43 = APPROVAL_PERSON_ORGANIZATION ( #172, #204, #5 ) ;
#44 = CC_DESIGN_PERSON_AND_ORGANIZATION_ASSIGNMENT ( #13, #140, ( #18 ) ) ;
#45 = APPLICATION_CONTEXT ( 'configuration controlled 3d designs of mechanical parts and assemblies' ) ;
#46 = VERTEX_POINT ( 'NONE', #93 ) ;
#47 = APPROVAL_ROLE ( '' ) ;
#48 = EDGE_LOOP ( 'NONE', ( #116, #232, #167, #42 ) ) ;
#49 = ORIENTED_EDGE ( 'NONE', *, *, #100, .F. ) ;
#50 = AXIS2_PLACEMENT_3D ( 'NONE', #38, #168, #135 ) ;
#51 = CARTESIAN_POINT ( 'NONE',  ( -25.00000000000000000, 25.00000000000000000, 0.0000000000000000000 ) ) ;
#52 = DIRECTION ( 'NONE',  ( -0.0000000000000000000, -0.0000000000000000000, -1.000000000000000000 ) ) ;
#53 = LINE ( 'NONE', #19, #134 ) ;
#54 = ORIENTED_EDGE ( 'NONE', *, *, #197, .T. ) ;
#55 = ADVANCED_FACE ( 'NONE', ( #56 ), #110, .F. ) ;
#56 = FACE_OUTER_BOUND ( 'NONE', #48, .T. ) ;
#57 = DIRECTION ( 'NONE',  ( 0.0000000000000000000, -0.0000000000000000000, 1.000000000000000000 ) ) ;
#58 = ADVANCED_FACE ( 'NONE', ( #30 ), #219, .F. ) ;
#59 = DIRECTION ( 'NONE',  ( -0.0000000000000000000, -0.0000000000000000000, -1.000000000000000000 ) ) ;
#60 = CC_DESIGN_DATE_AND_TIME_ASSIGNMENT ( #150, #138, ( #34 ) ) ;
#61 = DIRECTION ( 'NONE',  ( 1.000000000000000000, 0.0000000000000000000, 0.0000000000000000000 ) ) ;
#62 = EDGE_CURVE ( 'NONE', #46, #40, #94, .T. ) ;
#63 = FACE_OUTER_BOUND ( 'NONE', #187, .T. ) ;
#64 = PERSON ( 'UNSPECIFIED', 'UNSPECIFIED', 'UNSPECIFIED', ('UNSPECIFIED'), ('UNSPECIFIED'), ('UNSPECIFIED') ) ;
#65 = UNCERTAINTY_MEASURE_WITH_UNIT (LENGTH_MEASURE( 1.000000000000000100E-005 ), #114, 'distance_accuracy_value', 'NONE');
#66 = CLOSED_SHELL ( 'NONE', ( #130, #35, #32, #55, #183, #58 ) ) ;
#67 = ORGANIZATION ( 'UNSPECIFIED', 'UNSPECIFIED', '' ) ;
#68 = APPLICATION_PROTOCOL_DEFINITION ( 'international standard', 'config_control_design', 1994, #205 ) ;
#69 = PERSON_AND_ORGANIZATION_ROLE ( 'creator' ) ;
#70 = CARTESIAN_POINT ( 'NONE',  ( 0.0000000000000000000, 0.0000000000000000000, 0.0000000000000000000 ) ) ;
#71 = LINE ( 'NONE', #9, #225 ) ;
#72 = EDGE_LOOP ( 'NONE', ( #115, #148, #156, #186 ) ) ;
#73 = PLANE ( 'NONE',  #74 ) ;
#74 = AXIS2_PLACEMENT_3D ( 'NONE', #195, #212, #177 ) ;
#75 = EDGE_LOOP ( 'NONE', ( #54, #1, #49, #86 ) ) ;
#76 = CARTESIAN_POINT ( 'NONE',  ( -25.00000000000000000, 25.00000000000000000, 4.000000000000000000 ) ) ;
#77 = VECTOR ( 'NONE', #216, 1000.000000000000000 ) ;
#78 = EDGE_LOOP ( 'NONE', ( #132, #161, #90, #157 ) ) ;
#79 = DIRECTION ( 'NONE',  ( -0.0000000000000000000, 1.000000000000000000, -0.0000000000000000000 ) ) ;
#80 = PERSON_AND_ORGANIZATION ( #64, #67 ) ;
#81 = CARTESIAN_POINT ( 'NONE',  ( 25.00000000000000000, 25.00000000000000000, 0.0000000000000000000 ) ) ;
#82 = VERTEX_POINT ( 'NONE', #33 ) ;
#83 = AXIS2_PLACEMENT_3D ( 'NONE', #70, #10, #126 ) ;
#84 = COORDINATED_UNIVERSAL_TIME_OFFSET ( 5, 0, .BEHIND. ) ;
#85 = FACE_OUTER_BOUND ( 'NONE', #211, .T. ) ;
#86 = ORIENTED_EDGE ( 'NONE', *, *, #230, .T. ) ;
#87 = CALENDAR_DATE ( 2017, 31, 1 ) ;
#88 = DATE_TIME_ROLE ( 'classification_date' ) ;
#89 = AXIS2_PLACEMENT_3D ( 'NONE', #199, #233, #229 ) ;
#90 = ORIENTED_EDGE ( 'NONE', *, *, #62, .F. ) ;
#91 = CC_DESIGN_PERSON_AND_ORGANIZATION_ASSIGNMENT ( #24, #139, ( #222 ) ) ;
#92 = DATE_AND_TIME ( #120, #137 ) ;
#93 = CARTESIAN_POINT ( 'NONE',  ( 25.00000000000000000, -25.00000000000000000, 0.0000000000000000000 ) ) ;
#94 = LINE ( 'NONE', #214, #201 ) ;
#95 = CARTESIAN_POINT ( 'NONE',  ( -25.00000000000000000, 25.00000000000000000, 4.000000000000000000 ) ) ;
#96 = DIRECTION ( 'NONE',  ( 0.0000000000000000000, 1.000000000000000000, 0.0000000000000000000 ) ) ;
#97 = DATE_AND_TIME ( #87, #202 ) ;
#98 = ORIENTED_EDGE ( 'NONE', *, *, #6, .F. ) ;
#99 = DATE_AND_TIME ( #111, #41 ) ;
#100 = EDGE_CURVE ( 'NONE', #101, #128, #122, .T. ) ;
#101 = VERTEX_POINT ( 'NONE', #131 ) ;
#102 =( NAMED_UNIT ( * ) SI_UNIT ( $, .STERADIAN. ) SOLID_ANGLE_UNIT ( ) );
#103 = COORDINATED_UNIVERSAL_TIME_OFFSET ( 5, 0, .BEHIND. ) ;
#104 = APPROVAL ( #190, 'UNSPECIFIED' ) ;
#105 = AXIS2_PLACEMENT_3D ( 'NONE', #76, #217, #196 ) ;
#106 = EDGE_CURVE ( 'NONE', #153, #101, #53, .T. ) ;
#107 = LINE ( 'NONE', #226, #206 ) ;
#108 = EDGE_CURVE ( 'NONE', #153, #207, #145, .T. ) ;
#109 = COORDINATED_UNIVERSAL_TIME_OFFSET ( 5, 0, .BEHIND. ) ;
#110 = PLANE ( 'NONE',  #105 ) ;
#111 = CALENDAR_DATE ( 2017, 31, 1 ) ;
#112 = APPROVAL_DATE_TIME ( #223, #162 ) ;
#113 = PRODUCT_RELATED_PRODUCT_CATEGORY ( 'detail', '', ( #18 ) ) ;
#114 =( LENGTH_UNIT ( ) NAMED_UNIT ( * ) SI_UNIT ( .MILLI., .METRE. ) );
#115 = ORIENTED_EDGE ( 'NONE', *, *, #175, .T. ) ;
#116 = ORIENTED_EDGE ( 'NONE', *, *, #218, .T. ) ;
#117 = LOCAL_TIME ( 10, 21, 5.000000000000000000, #109 ) ;
#118 = ADVANCED_BREP_SHAPE_REPRESENTATION ( 'Web Model 47947', ( #181, #83 ), #136 ) ;
#119 = COORDINATED_UNIVERSAL_TIME_OFFSET ( 5, 0, .BEHIND. ) ;
#120 = CALENDAR_DATE ( 2017, 31, 1 ) ;
#121 = ORIENTED_EDGE ( 'NONE', *, *, #123, .F. ) ;
#122 = LINE ( 'NONE', #36, #39 ) ;
#123 = EDGE_CURVE ( 'NONE', #82, #40, #176, .T. ) ;
#124 = APPROVAL_DATE_TIME ( #92, #204 ) ;
#125 = DIRECTION ( 'NONE',  ( -0.0000000000000000000, -0.0000000000000000000, -1.000000000000000000 ) ) ;
#126 = DIRECTION ( 'NONE',  ( 1.000000000000000000, 0.0000000000000000000, 0.0000000000000000000 ) ) ;
#127 = CC_DESIGN_PERSON_AND_ORGANIZATION_ASSIGNMENT ( #16, #159, ( #234 ) ) ;
#128 = VERTEX_POINT ( 'NONE', #133 ) ;
#129 = VECTOR ( 'NONE', #59, 1000.000000000000000 ) ;
#130 = ADVANCED_FACE ( 'NONE', ( #166 ), #23, .F. ) ;
#131 = CARTESIAN_POINT ( 'NONE',  ( -25.00000000000000000, -25.00000000000000000, 4.000000000000000000 ) ) ;
#132 = ORIENTED_EDGE ( 'NONE', *, *, #175, .F. ) ;
#133 = CARTESIAN_POINT ( 'NONE',  ( 25.00000000000000000, -25.00000000000000000, 4.000000000000000000 ) ) ;
#134 = VECTOR ( 'NONE', #237, 1000.000000000000000 ) ;
#135 = DIRECTION ( 'NONE',  ( -0.0000000000000000000, 0.0000000000000000000, -1.000000000000000000 ) ) ;
#136 =( GEOMETRIC_REPRESENTATION_CONTEXT ( 3 ) GLOBAL_UNCERTAINTY_ASSIGNED_CONTEXT ( ( #65 ) ) GLOBAL_UNIT_ASSIGNED_CONTEXT ( ( #114, #151, #102 ) ) REPRESENTATION_CONTEXT ( 'NONE', 'WORKASPACE' ) );
#137 = LOCAL_TIME ( 10, 21, 5.000000000000000000, #103 ) ;
#138 = DATE_TIME_ROLE ( 'creation_date' ) ;
#139 = PERSON_AND_ORGANIZATION_ROLE ( 'design_supplier' ) ;
#140 = PERSON_AND_ORGANIZATION_ROLE ( 'design_owner' ) ;
#141 = LINE ( 'NONE', #209, #77 ) ;
#142 = APPROVAL_STATUS ( 'not_yet_approved' ) ;
#143 = EDGE_CURVE ( 'NONE', #128, #46, #17, .T. ) ;
#144 = DIRECTION ( 'NONE',  ( -1.000000000000000000, -0.0000000000000000000, -0.0000000000000000000 ) ) ;
#145 = LINE ( 'NONE', #95, #129 ) ;
#146 = DIRECTION ( 'NONE',  ( 0.0000000000000000000, 0.0000000000000000000, 1.000000000000000000 ) ) ;
#147 = VECTOR ( 'NONE', #144, 1000.000000000000000 ) ;
#148 = ORIENTED_EDGE ( 'NONE', *, *, #230, .F. ) ;
#149 = ORIENTED_EDGE ( 'NONE', *, *, #100, .T. ) ;
#150 = DATE_AND_TIME ( #192, #11 ) ;
#151 =( NAMED_UNIT ( * ) PLANE_ANGLE_UNIT ( ) SI_UNIT ( $, .RADIAN. ) );
#152 = ORIENTED_EDGE ( 'NONE', *, *, #106, .T. ) ;
#153 = VERTEX_POINT ( 'NONE', #14 ) ;
#154 = APPROVAL_PERSON_ORGANIZATION ( #25, #104, #47 ) ;
#155 = EDGE_CURVE ( 'NONE', #82, #153, #189, .T. ) ;
#156 = ORIENTED_EDGE ( 'NONE', *, *, #106, .F. ) ;
#157 = ORIENTED_EDGE ( 'NONE', *, *, #197, .F. ) ;
#158 = APPROVAL_ROLE ( '' ) ;
#159 = PERSON_AND_ORGANIZATION_ROLE ( 'classification_officer' ) ;
#160 = COORDINATED_UNIVERSAL_TIME_OFFSET ( 5, 0, .BEHIND. ) ;
#161 = ORIENTED_EDGE ( 'NONE', *, *, #218, .F. ) ;
#162 = APPROVAL ( #191, 'UNSPECIFIED' ) ;
#163 = CARTESIAN_POINT ( 'NONE',  ( 25.00000000000000000, -25.00000000000000000, 4.000000000000000000 ) ) ;
#164 = DIRECTION ( 'NONE',  ( 1.000000000000000000, 0.0000000000000000000, 0.0000000000000000000 ) ) ;
#165 = PLANE ( 'NONE',  #180 ) ;
#166 = FACE_OUTER_BOUND ( 'NONE', #72, .T. ) ;
#167 = ORIENTED_EDGE ( 'NONE', *, *, #155, .F. ) ;
#168 = DIRECTION ( 'NONE',  ( 1.000000000000000000, 0.0000000000000000000, -0.0000000000000000000 ) ) ;
#169 = LINE ( 'NONE', #51, #37 ) ;
#170 = DIRECTION ( 'NONE',  ( -0.0000000000000000000, 1.000000000000000000, -0.0000000000000000000 ) ) ;
#171 = APPROVAL_PERSON_ORGANIZATION ( #200, #162, #158 ) ;
#172 = PERSON_AND_ORGANIZATION ( #64, #67 ) ;
#173 = CC_DESIGN_APPROVAL ( #204, ( #222 ) ) ;
#174 = VERTEX_POINT ( 'NONE', #12 ) ;
#175 = EDGE_CURVE ( 'NONE', #207, #174, #169, .T. ) ;
#176 = LINE ( 'NONE', #184, #215 ) ;
#177 = DIRECTION ( 'NONE',  ( 1.000000000000000000, 0.0000000000000000000, 0.0000000000000000000 ) ) ;
#178 = CC_DESIGN_DATE_AND_TIME_ASSIGNMENT ( #99, #88, ( #234 ) ) ;
#179 = CARTESIAN_POINT ( 'NONE',  ( -25.00000000000000000, 25.00000000000000000, 0.0000000000000000000 ) ) ;
#180 = AXIS2_PLACEMENT_3D ( 'NONE', #182, #15, #146 ) ;
#181 = MANIFOLD_SOLID_BREP ( 'Extrude1', #66 ) ;
#182 = CARTESIAN_POINT ( 'NONE',  ( 25.00000000000000000, 25.00000000000000000, 4.000000000000000000 ) ) ;
#183 = ADVANCED_FACE ( 'NONE', ( #85 ), #73, .T. ) ;
#184 = CARTESIAN_POINT ( 'NONE',  ( 25.00000000000000000, 25.00000000000000000, 4.000000000000000000 ) ) ;
#185 = APPROVAL_DATE_TIME ( #97, #104 ) ;
#186 = ORIENTED_EDGE ( 'NONE', *, *, #108, .T. ) ;
#187 = EDGE_LOOP ( 'NONE', ( #2, #121, #98, #194 ) ) ;
#188 = ORIENTED_EDGE ( 'NONE', *, *, #155, .T. ) ;
#189 = LINE ( 'NONE', #22, #147 ) ;
#190 = APPROVAL_STATUS ( 'not_yet_approved' ) ;
#191 = APPROVAL_STATUS ( 'not_yet_approved' ) ;
#192 = CALENDAR_DATE ( 2017, 31, 1 ) ;
#193 = DESIGN_CONTEXT ( 'detailed design', #205, 'design' ) ;
#194 = ORIENTED_EDGE ( 'NONE', *, *, #143, .T. ) ;
#195 = CARTESIAN_POINT ( 'NONE',  ( -25.00000000000000000, -25.00000000000000000, 4.000000000000000000 ) ) ;
#196 = DIRECTION ( 'NONE',  ( 0.0000000000000000000, -0.0000000000000000000, -1.000000000000000000 ) ) ;
#197 = EDGE_CURVE ( 'NONE', #174, #46, #71, .T. ) ;
#198 = PLANE ( 'NONE',  #235 ) ;
#199 = CARTESIAN_POINT ( 'NONE',  ( -25.00000000000000000, -25.00000000000000000, 0.0000000000000000000 ) ) ;
#200 = PERSON_AND_ORGANIZATION ( #64, #67 ) ;
#201 = VECTOR ( 'NONE', #170, 1000.000000000000000 ) ;
#202 = LOCAL_TIME ( 10, 21, 5.000000000000000000, #119 ) ;
#203 = VECTOR ( 'NONE', #52, 1000.000000000000000 ) ;
#204 = APPROVAL ( #142, 'UNSPECIFIED' ) ;
#205 = APPLICATION_CONTEXT ( 'configuration controlled 3d designs of mechanical parts and assemblies' ) ;
#206 = VECTOR ( 'NONE', #125, 1000.000000000000000 ) ;
#207 = VERTEX_POINT ( 'NONE', #179 ) ;
#208 = PERSON_AND_ORGANIZATION_ROLE ( 'creator' ) ;
#209 = CARTESIAN_POINT ( 'NONE',  ( -25.00000000000000000, 25.00000000000000000, 0.0000000000000000000 ) ) ;
#210 = APPLICATION_PROTOCOL_DEFINITION ( 'international standard', 'config_control_design', 1994, #45 ) ;
#211 = EDGE_LOOP ( 'NONE', ( #152, #149, #20, #188 ) ) ;
#212 = DIRECTION ( 'NONE',  ( -0.0000000000000000000, 0.0000000000000000000, 1.000000000000000000 ) ) ;
#213 = CARTESIAN_POINT ( 'NONE',  ( 25.00000000000000000, 25.00000000000000000, 4.000000000000000000 ) ) ;
#214 = CARTESIAN_POINT ( 'NONE',  ( 25.00000000000000000, 25.00000000000000000, 0.0000000000000000000 ) ) ;
#215 = VECTOR ( 'NONE', #221, 1000.000000000000000 ) ;
#216 = DIRECTION ( 'NONE',  ( -1.000000000000000000, -0.0000000000000000000, -0.0000000000000000000 ) ) ;
#217 = DIRECTION ( 'NONE',  ( 0.0000000000000000000, -1.000000000000000000, 0.0000000000000000000 ) ) ;
#218 = EDGE_CURVE ( 'NONE', #40, #207, #141, .T. ) ;
#219 = PLANE ( 'NONE',  #89 ) ;
#220 = CC_DESIGN_PERSON_AND_ORGANIZATION_ASSIGNMENT ( #80, #69, ( #222 ) ) ;
#221 = DIRECTION ( 'NONE',  ( -0.0000000000000000000, -0.0000000000000000000, -1.000000000000000000 ) ) ;
#222 = PRODUCT_DEFINITION_FORMATION_WITH_SPECIFIED_SOURCE ( 'ANY', '', #18, .NOT_KNOWN. ) ;
#223 = DATE_AND_TIME ( #236, #117 ) ;
#224 = PRODUCT_DEFINITION_SHAPE ( 'NONE', 'NONE',  #34 ) ;
#225 = VECTOR ( 'NONE', #164, 1000.000000000000000 ) ;
#226 = CARTESIAN_POINT ( 'NONE',  ( -25.00000000000000000, -25.00000000000000000, 4.000000000000000000 ) ) ;
#227 = FACE_OUTER_BOUND ( 'NONE', #75, .T. ) ;
#228 = CC_DESIGN_APPROVAL ( #162, ( #34 ) ) ;
#229 = DIRECTION ( 'NONE',  ( 1.000000000000000000, 0.0000000000000000000, 0.0000000000000000000 ) ) ;
#230 = EDGE_CURVE ( 'NONE', #101, #174, #107, .T. ) ;
#231 = CARTESIAN_POINT ( 'NONE',  ( -25.00000000000000000, -25.00000000000000000, 4.000000000000000000 ) ) ;
#232 = ORIENTED_EDGE ( 'NONE', *, *, #108, .F. ) ;
#233 = DIRECTION ( 'NONE',  ( -0.0000000000000000000, 0.0000000000000000000, 1.000000000000000000 ) ) ;
#234 = SECURITY_CLASSIFICATION ( '', '', #26 ) ;
#235 = AXIS2_PLACEMENT_3D ( 'NONE', #231, #96, #57 ) ;
#236 = CALENDAR_DATE ( 2017, 31, 1 ) ;
#237 = DIRECTION ( 'NONE',  ( 0.0000000000000000000, -1.000000000000000000, 0.0000000000000000000 ) ) ;
ENDSEC;
END-ISO-10303-21;
