ISO-10303-21;
HEADER;
FILE_DESCRIPTION (( 'STEP AP203' ),
    '1' );
FILE_NAME ('Web Model 43847_43849.step',
    '2018-03-12T20:48:28',
    ( '' ),
    ( '' ),
    'SwSTEP 2.0',
    'SolidWorks 2016',
    '' );
FILE_SCHEMA (( 'CONFIG_CONTROL_DESIGN' ));
ENDSEC;

DATA;
#1 = APPROVAL_PERSON_ORGANIZATION ( #47, #49, #54 ) ;
#2 = UNCERTAINTY_MEASURE_WITH_UNIT (LENGTH_MEASURE( 1.000000000000000100E-005 ), #36, 'distance_accuracy_value', 'NONE');
#3 = LINE ( 'NONE', #158, #67 ) ;
#4 = AXIS2_PLACEMENT_3D ( 'NONE', #19, #199, #129 ) ;
#5 = LINE ( 'NONE', #188, #77 ) ;
#6 = VERTEX_POINT ( 'NONE', #11 ) ;
#7 = ORIENTED_EDGE ( 'NONE', *, *, #74, .F. ) ;
#8 = CARTESIAN_POINT ( 'NONE',  ( -3.000000000000000000, 6.349999999999998800, 6.349999999999999600 ) ) ;
#9 = ORIENTED_EDGE ( 'NONE', *, *, #87, .T. ) ;
#10 = VECTOR ( 'NONE', #107, 1000.000000000000000 ) ;
#11 = CARTESIAN_POINT ( 'NONE',  ( -3.000000000000000000, 6.349999999999998800, -6.349999999999999600 ) ) ;
#12 = CARTESIAN_POINT ( 'NONE',  ( -3.000000000000000000, -6.350000000000000500, 6.350000000000002300 ) ) ;
#13 = CC_DESIGN_PERSON_AND_ORGANIZATION_ASSIGNMENT ( #190, #162, ( #118 ) ) ;
#14 = DIRECTION ( 'NONE',  ( 0.0000000000000000000, -0.0000000000000000000, -1.000000000000000000 ) ) ;
#15 = CALENDAR_DATE ( 2018, 12, 3 ) ;
#16 = PERSON_AND_ORGANIZATION ( #146, #149 ) ;
#17 = APPLICATION_CONTEXT ( 'configuration controlled 3d designs of mechanical parts and assemblies' ) ;
#18 = ORIENTED_EDGE ( 'NONE', *, *, #150, .F. ) ;
#19 = CARTESIAN_POINT ( 'NONE',  ( 0.0000000000000000000, 0.0000000000000000000, 0.0000000000000000000 ) ) ;
#20 = ORIENTED_EDGE ( 'NONE', *, *, #84, .F. ) ;
#21 = APPROVAL_STATUS ( 'not_yet_approved' ) ;
#22 = EDGE_LOOP ( 'NONE', ( #26, #18, #155, #197 ) ) ;
#23 = ORIENTED_EDGE ( 'NONE', *, *, #174, .F. ) ;
#24 = CC_DESIGN_DATE_AND_TIME_ASSIGNMENT ( #62, #235, ( #164 ) ) ;
#25 = LINE ( 'NONE', #159, #183 ) ;
#26 = ORIENTED_EDGE ( 'NONE', *, *, #84, .T. ) ;
#27 = EDGE_CURVE ( 'NONE', #6, #93, #166, .T. ) ;
#28 = APPROVAL ( #21, 'UNSPECIFIED' ) ;
#29 = DIRECTION ( 'NONE',  ( -0.0000000000000000000, 1.000000000000000000, 2.048885995248197400E-016 ) ) ;
#30 = VECTOR ( 'NONE', #156, 1000.000000000000000 ) ;
#31 = DIRECTION ( 'NONE',  ( -0.0000000000000000000, 1.000000000000000000, 2.048885995248197400E-016 ) ) ;
#32 = CARTESIAN_POINT ( 'NONE',  ( 3.000000000000000000, 6.349999999999998800, 6.349999999999999600 ) ) ;
#33 = DIRECTION ( 'NONE',  ( -1.000000000000000000, -0.0000000000000000000, -0.0000000000000000000 ) ) ;
#34 = CARTESIAN_POINT ( 'NONE',  ( 3.000000000000000000, 6.349999999999998800, -6.349999999999999600 ) ) ;
#35 = PERSON_AND_ORGANIZATION_ROLE ( 'creator' ) ;
#36 =( LENGTH_UNIT ( ) NAMED_UNIT ( * ) SI_UNIT ( .MILLI., .METRE. ) );
#37 = EDGE_LOOP ( 'NONE', ( #216, #97, #23, #219 ) ) ;
#38 = CALENDAR_DATE ( 2018, 12, 3 ) ;
#39 = LOCAL_TIME ( 16, 48, 28.00000000000000000, #201 ) ;
#40 = CC_DESIGN_APPROVAL ( #28, ( #164 ) ) ;
#41 = EDGE_CURVE ( 'NONE', #57, #60, #237, .T. ) ;
#42 = PERSON_AND_ORGANIZATION ( #146, #149 ) ;
#43 = APPROVAL_DATE_TIME ( #95, #49 ) ;
#44 = EDGE_CURVE ( 'NONE', #120, #93, #186, .T. ) ;
#45 = DIRECTION ( 'NONE',  ( 1.000000000000000000, 0.0000000000000000000, 0.0000000000000000000 ) ) ;
#46 = PLANE ( 'NONE',  #225 ) ;
#47 = PERSON_AND_ORGANIZATION ( #146, #149 ) ;
#48 = DIRECTION ( 'NONE',  ( -0.0000000000000000000, -0.0000000000000000000, 1.000000000000000000 ) ) ;
#49 = APPROVAL ( #141, 'UNSPECIFIED' ) ;
#50 = DATE_TIME_ROLE ( 'creation_date' ) ;
#51 = VECTOR ( 'NONE', #171, 1000.000000000000000 ) ;
#52 = APPLICATION_CONTEXT ( 'configuration controlled 3d designs of mechanical parts and assemblies' ) ;
#53 = ORIENTED_EDGE ( 'NONE', *, *, #114, .T. ) ;
#54 = APPROVAL_ROLE ( '' ) ;
#55 = COORDINATED_UNIVERSAL_TIME_OFFSET ( 5, 0, .BEHIND. ) ;
#56 = CC_DESIGN_DATE_AND_TIME_ASSIGNMENT ( #66, #50, ( #71 ) ) ;
#57 = VERTEX_POINT ( 'NONE', #168 ) ;
#58 = ADVANCED_FACE ( 'NONE', ( #222 ), #170, .F. ) ;
#59 = LINE ( 'NONE', #172, #175 ) ;
#60 = VERTEX_POINT ( 'NONE', #160 ) ;
#61 = CLOSED_SHELL ( 'NONE', ( #58, #85, #212, #209, #187, #76 ) ) ;
#62 = DATE_AND_TIME ( #15, #108 ) ;
#63 = EDGE_LOOP ( 'NONE', ( #80, #223, #154, #151 ) ) ;
#64 = CC_DESIGN_PERSON_AND_ORGANIZATION_ASSIGNMENT ( #42, #35, ( #71 ) ) ;
#65 = PRODUCT_DEFINITION_SHAPE ( 'NONE', 'NONE',  #71 ) ;
#66 = DATE_AND_TIME ( #116, #161 ) ;
#67 = VECTOR ( 'NONE', #29, 1000.000000000000000 ) ;
#68 = VERTEX_POINT ( 'NONE', #213 ) ;
#69 = DIRECTION ( 'NONE',  ( 0.0000000000000000000, 0.0000000000000000000, -1.000000000000000000 ) ) ;
#70 = CARTESIAN_POINT ( 'NONE',  ( 3.000000000000000000, 6.349999999999998800, 6.349999999999999600 ) ) ;
#71 = PRODUCT_DEFINITION ( 'UNKNOWN', '', #118, #206 ) ;
#72 = VECTOR ( 'NONE', #189, 1000.000000000000000 ) ;
#73 = ORIENTED_EDGE ( 'NONE', *, *, #174, .T. ) ;
#74 = EDGE_CURVE ( 'NONE', #93, #169, #232, .T. ) ;
#75 = APPROVAL_DATE_TIME ( #148, #28 ) ;
#76 = ADVANCED_FACE ( 'NONE', ( #100 ), #46, .F. ) ;
#77 = VECTOR ( 'NONE', #90, 1000.000000000000000 ) ;
#78 = APPROVAL ( #196, 'UNSPECIFIED' ) ;
#79 = COORDINATED_UNIVERSAL_TIME_OFFSET ( 5, 0, .BEHIND. ) ;
#80 = ORIENTED_EDGE ( 'NONE', *, *, #27, .T. ) ;
#81 = FACE_OUTER_BOUND ( 'NONE', #105, .T. ) ;
#82 = CARTESIAN_POINT ( 'NONE',  ( 3.000000000000000000, -6.350000000000000500, 6.350000000000002300 ) ) ;
#83 = ORIENTED_EDGE ( 'NONE', *, *, #87, .F. ) ;
#84 = EDGE_CURVE ( 'NONE', #68, #6, #3, .T. ) ;
#85 = ADVANCED_FACE ( 'NONE', ( #134 ), #104, .F. ) ;
#86 = CARTESIAN_POINT ( 'NONE',  ( -3.000000000000000000, 6.349999999999998800, 6.349999999999999600 ) ) ;
#87 = EDGE_CURVE ( 'NONE', #169, #68, #122, .T. ) ;
#88 = DATE_AND_TIME ( #132, #39 ) ;
#89 = CARTESIAN_POINT ( 'NONE',  ( 3.000000000000000000, 6.349999999999998800, -6.349999999999999600 ) ) ;
#90 = DIRECTION ( 'NONE',  ( -1.000000000000000000, -0.0000000000000000000, -0.0000000000000000000 ) ) ;
#91 = EDGE_CURVE ( 'NONE', #99, #120, #203, .T. ) ;
#92 = CC_DESIGN_SECURITY_CLASSIFICATION ( #164, ( #118 ) ) ;
#93 = VERTEX_POINT ( 'NONE', #8 ) ;
#94 = APPLICATION_PROTOCOL_DEFINITION ( 'international standard', 'config_control_design', 1994, #52 ) ;
#95 = DATE_AND_TIME ( #139, #236 ) ;
#96 = PRODUCT_RELATED_PRODUCT_CATEGORY ( 'detail', '', ( #142 ) ) ;
#97 = ORIENTED_EDGE ( 'NONE', *, *, #114, .F. ) ;
#98 = PERSON_AND_ORGANIZATION ( #146, #149 ) ;
#99 = VERTEX_POINT ( 'NONE', #34 ) ;
#100 = FACE_OUTER_BOUND ( 'NONE', #101, .T. ) ;
#101 = EDGE_LOOP ( 'NONE', ( #7, #177, #20, #83 ) ) ;
#102 = DIRECTION ( 'NONE',  ( 0.0000000000000000000, 1.000000000000000000, -2.048885995248197400E-016 ) ) ;
#103 = FACE_OUTER_BOUND ( 'NONE', #22, .T. ) ;
#104 = PLANE ( 'NONE',  #111 ) ;
#105 = EDGE_LOOP ( 'NONE', ( #73, #124, #208, #152 ) ) ;
#106 = DIRECTION ( 'NONE',  ( 0.0000000000000000000, -0.0000000000000000000, 1.000000000000000000 ) ) ;
#107 = DIRECTION ( 'NONE',  ( 0.0000000000000000000, 0.0000000000000000000, -1.000000000000000000 ) ) ;
#108 = LOCAL_TIME ( 16, 48, 28.00000000000000000, #79 ) ;
#109 = PLANE ( 'NONE',  #182 ) ;
#110 = APPLICATION_PROTOCOL_DEFINITION ( 'international standard', 'config_control_design', 1994, #17 ) ;
#111 = AXIS2_PLACEMENT_3D ( 'NONE', #82, #126, #106 ) ;
#112 = LINE ( 'NONE', #229, #30 ) ;
#113 = PERSON_AND_ORGANIZATION_ROLE ( 'classification_officer' ) ;
#114 = EDGE_CURVE ( 'NONE', #57, #169, #25, .T. ) ;
#115 = LOCAL_TIME ( 16, 48, 28.00000000000000000, #55 ) ;
#116 = CALENDAR_DATE ( 2018, 12, 3 ) ;
#117 = AXIS2_PLACEMENT_3D ( 'NONE', #218, #145, #220 ) ;
#118 = PRODUCT_DEFINITION_FORMATION_WITH_SPECIFIED_SOURCE ( 'ANY', '', #142, .NOT_KNOWN. ) ;
#119 = EDGE_CURVE ( 'NONE', #60, #99, #165, .T. ) ;
#120 = VERTEX_POINT ( 'NONE', #32 ) ;
#121 = CARTESIAN_POINT ( 'NONE',  ( 3.000000000000000000, 6.349999999999998800, 6.349999999999999600 ) ) ;
#122 = LINE ( 'NONE', #12, #10 ) ;
#123 = CC_DESIGN_APPROVAL ( #49, ( #71 ) ) ;
#124 = ORIENTED_EDGE ( 'NONE', *, *, #41, .T. ) ;
#125 = DIRECTION ( 'NONE',  ( 0.0000000000000000000, 0.0000000000000000000, -1.000000000000000000 ) ) ;
#126 = DIRECTION ( 'NONE',  ( -0.0000000000000000000, 1.000000000000000000, 0.0000000000000000000 ) ) ;
#127 = PERSON_AND_ORGANIZATION ( #146, #149 ) ;
#128 = VECTOR ( 'NONE', #69, 1000.000000000000000 ) ;
#129 = DIRECTION ( 'NONE',  ( 1.000000000000000000, 0.0000000000000000000, 0.0000000000000000000 ) ) ;
#130 = DIRECTION ( 'NONE',  ( 0.0000000000000000000, -1.000000000000000000, -2.048885995248197400E-016 ) ) ;
#131 = PLANE ( 'NONE',  #117 ) ;
#132 = CALENDAR_DATE ( 2018, 12, 3 ) ;
#133 = CC_DESIGN_PERSON_AND_ORGANIZATION_ASSIGNMENT ( #153, #176, ( #118 ) ) ;
#134 = FACE_OUTER_BOUND ( 'NONE', #202, .T. ) ;
#135 = FACE_OUTER_BOUND ( 'NONE', #63, .T. ) ;
#136 = VECTOR ( 'NONE', #227, 1000.000000000000000 ) ;
#137 = ORIENTED_EDGE ( 'NONE', *, *, #41, .F. ) ;
#138 = CARTESIAN_POINT ( 'NONE',  ( -3.000000000000000000, 6.349999999999998800, 6.349999999999999600 ) ) ;
#139 = CALENDAR_DATE ( 2018, 12, 3 ) ;
#140 = CARTESIAN_POINT ( 'NONE',  ( -3.000000000000000000, -6.350000000000000500, 6.350000000000002300 ) ) ;
#141 = APPROVAL_STATUS ( 'not_yet_approved' ) ;
#142 = PRODUCT ( 'Web Model 43847_43849', 'Web Model 43847_43849', '', ( #217 ) ) ;
#143 = APPROVAL_PERSON_ORGANIZATION ( #16, #78, #195 ) ;
#144 = ORIENTED_EDGE ( 'NONE', *, *, #167, .F. ) ;
#145 = DIRECTION ( 'NONE',  ( 1.000000000000000000, 0.0000000000000000000, 0.0000000000000000000 ) ) ;
#146 = PERSON ( 'UNSPECIFIED', 'UNSPECIFIED', 'UNSPECIFIED', ('UNSPECIFIED'), ('UNSPECIFIED'), ('UNSPECIFIED') ) ;
#147 = CARTESIAN_POINT ( 'NONE',  ( 3.000000000000000000, 6.349999999999998800, 6.349999999999999600 ) ) ;
#148 = DATE_AND_TIME ( #38, #115 ) ;
#149 = ORGANIZATION ( 'UNSPECIFIED', 'UNSPECIFIED', '' ) ;
#150 = EDGE_CURVE ( 'NONE', #99, #6, #5, .T. ) ;
#151 = ORIENTED_EDGE ( 'NONE', *, *, #150, .T. ) ;
#152 = ORIENTED_EDGE ( 'NONE', *, *, #91, .T. ) ;
#153 = PERSON_AND_ORGANIZATION ( #146, #149 ) ;
#154 = ORIENTED_EDGE ( 'NONE', *, *, #91, .F. ) ;
#155 = ORIENTED_EDGE ( 'NONE', *, *, #119, .F. ) ;
#156 = DIRECTION ( 'NONE',  ( 0.0000000000000000000, -1.000000000000000000, 2.048885995248197400E-016 ) ) ;
#157 = VECTOR ( 'NONE', #48, 1000.000000000000000 ) ;
#158 = CARTESIAN_POINT ( 'NONE',  ( -3.000000000000000000, 6.349999999999998800, -6.349999999999999600 ) ) ;
#159 = CARTESIAN_POINT ( 'NONE',  ( 3.000000000000000000, -6.350000000000000500, 6.350000000000002300 ) ) ;
#160 = CARTESIAN_POINT ( 'NONE',  ( 3.000000000000000000, -6.350000000000000500, -6.350000000000002300 ) ) ;
#161 = LOCAL_TIME ( 16, 48, 28.00000000000000000, #181 ) ;
#162 = PERSON_AND_ORGANIZATION_ROLE ( 'design_supplier' ) ;
#163 =( NAMED_UNIT ( * ) SI_UNIT ( $, .STERADIAN. ) SOLID_ANGLE_UNIT ( ) );
#164 = SECURITY_CLASSIFICATION ( '', '', #178 ) ;
#165 = LINE ( 'NONE', #89, #226 ) ;
#166 = LINE ( 'NONE', #138, #51 ) ;
#167 = EDGE_CURVE ( 'NONE', #60, #68, #59, .T. ) ;
#168 = CARTESIAN_POINT ( 'NONE',  ( 3.000000000000000000, -6.350000000000000500, 6.350000000000002300 ) ) ;
#169 = VERTEX_POINT ( 'NONE', #140 ) ;
#170 = PLANE ( 'NONE',  #191 ) ;
#171 = DIRECTION ( 'NONE',  ( -0.0000000000000000000, -0.0000000000000000000, 1.000000000000000000 ) ) ;
#172 = CARTESIAN_POINT ( 'NONE',  ( 3.000000000000000000, -6.350000000000000500, -6.350000000000002300 ) ) ;
#173 = PERSON_AND_ORGANIZATION_ROLE ( 'design_owner' ) ;
#174 = EDGE_CURVE ( 'NONE', #120, #57, #112, .T. ) ;
#175 = VECTOR ( 'NONE', #194, 1000.000000000000000 ) ;
#176 = PERSON_AND_ORGANIZATION_ROLE ( 'creator' ) ;
#177 = ORIENTED_EDGE ( 'NONE', *, *, #27, .F. ) ;
#178 = SECURITY_CLASSIFICATION_LEVEL ( 'unclassified' ) ;
#179 =( GEOMETRIC_REPRESENTATION_CONTEXT ( 3 ) GLOBAL_UNCERTAINTY_ASSIGNED_CONTEXT ( ( #2 ) ) GLOBAL_UNIT_ASSIGNED_CONTEXT ( ( #36, #230, #163 ) ) REPRESENTATION_CONTEXT ( 'NONE', 'WORKASPACE' ) );
#180 = APPROVAL_PERSON_ORGANIZATION ( #127, #28, #231 ) ;
#181 = COORDINATED_UNIVERSAL_TIME_OFFSET ( 5, 0, .BEHIND. ) ;
#182 = AXIS2_PLACEMENT_3D ( 'NONE', #147, #198, #14 ) ;
#183 = VECTOR ( 'NONE', #33, 1000.000000000000000 ) ;
#184 = CC_DESIGN_PERSON_AND_ORGANIZATION_ASSIGNMENT ( #221, #113, ( #164 ) ) ;
#185 = COORDINATED_UNIVERSAL_TIME_OFFSET ( 5, 0, .BEHIND. ) ;
#186 = LINE ( 'NONE', #70, #72 ) ;
#187 = ADVANCED_FACE ( 'NONE', ( #81 ), #131, .T. ) ;
#188 = CARTESIAN_POINT ( 'NONE',  ( 3.000000000000000000, 6.349999999999998800, -6.349999999999999600 ) ) ;
#189 = DIRECTION ( 'NONE',  ( -1.000000000000000000, -0.0000000000000000000, -0.0000000000000000000 ) ) ;
#190 = PERSON_AND_ORGANIZATION ( #146, #149 ) ;
#191 = AXIS2_PLACEMENT_3D ( 'NONE', #121, #228, #102 ) ;
#192 = CARTESIAN_POINT ( 'NONE',  ( 3.000000000000000000, -6.350000000000000500, 6.350000000000002300 ) ) ;
#193 = SHAPE_DEFINITION_REPRESENTATION ( #65, #204 ) ;
#194 = DIRECTION ( 'NONE',  ( -1.000000000000000000, -0.0000000000000000000, -0.0000000000000000000 ) ) ;
#195 = APPROVAL_ROLE ( '' ) ;
#196 = APPROVAL_STATUS ( 'not_yet_approved' ) ;
#197 = ORIENTED_EDGE ( 'NONE', *, *, #167, .T. ) ;
#198 = DIRECTION ( 'NONE',  ( 0.0000000000000000000, -1.000000000000000000, 0.0000000000000000000 ) ) ;
#199 = DIRECTION ( 'NONE',  ( 0.0000000000000000000, 0.0000000000000000000, 1.000000000000000000 ) ) ;
#200 = CC_DESIGN_APPROVAL ( #78, ( #118 ) ) ;
#201 = COORDINATED_UNIVERSAL_TIME_OFFSET ( 5, 0, .BEHIND. ) ;
#202 = EDGE_LOOP ( 'NONE', ( #9, #144, #137, #53 ) ) ;
#203 = LINE ( 'NONE', #210, #157 ) ;
#204 = ADVANCED_BREP_SHAPE_REPRESENTATION ( 'Web Model 43847_43849', ( #224, #4 ), #179 ) ;
#205 = AXIS2_PLACEMENT_3D ( 'NONE', #233, #215, #130 ) ;
#206 = DESIGN_CONTEXT ( 'detailed design', #52, 'design' ) ;
#207 = APPROVAL_DATE_TIME ( #88, #78 ) ;
#208 = ORIENTED_EDGE ( 'NONE', *, *, #119, .T. ) ;
#209 = ADVANCED_FACE ( 'NONE', ( #135 ), #109, .F. ) ;
#210 = CARTESIAN_POINT ( 'NONE',  ( 3.000000000000000000, 6.349999999999998800, 6.349999999999999600 ) ) ;
#211 = CARTESIAN_POINT ( 'NONE',  ( -3.000000000000000000, 0.0000000000000000000, 0.0000000000000000000 ) ) ;
#212 = ADVANCED_FACE ( 'NONE', ( #103 ), #234, .F. ) ;
#213 = CARTESIAN_POINT ( 'NONE',  ( -3.000000000000000000, -6.350000000000000500, -6.350000000000002300 ) ) ;
#214 = CC_DESIGN_PERSON_AND_ORGANIZATION_ASSIGNMENT ( #98, #173, ( #142 ) ) ;
#215 = DIRECTION ( 'NONE',  ( 0.0000000000000000000, -2.048885995248197400E-016, 1.000000000000000000 ) ) ;
#216 = ORIENTED_EDGE ( 'NONE', *, *, #74, .T. ) ;
#217 = MECHANICAL_CONTEXT ( 'NONE', #17, 'mechanical' ) ;
#218 = CARTESIAN_POINT ( 'NONE',  ( 3.000000000000000000, 0.0000000000000000000, 0.0000000000000000000 ) ) ;
#219 = ORIENTED_EDGE ( 'NONE', *, *, #44, .T. ) ;
#220 = DIRECTION ( 'NONE',  ( 0.0000000000000000000, 0.0000000000000000000, -1.000000000000000000 ) ) ;
#221 = PERSON_AND_ORGANIZATION ( #146, #149 ) ;
#222 = FACE_OUTER_BOUND ( 'NONE', #37, .T. ) ;
#223 = ORIENTED_EDGE ( 'NONE', *, *, #44, .F. ) ;
#224 = MANIFOLD_SOLID_BREP ( 'Boss-Extrude1', #61 ) ;
#225 = AXIS2_PLACEMENT_3D ( 'NONE', #211, #45, #125 ) ;
#226 = VECTOR ( 'NONE', #31, 1000.000000000000000 ) ;
#227 = DIRECTION ( 'NONE',  ( 0.0000000000000000000, -1.000000000000000000, 2.048885995248197400E-016 ) ) ;
#228 = DIRECTION ( 'NONE',  ( 0.0000000000000000000, -2.048885995248197400E-016, -1.000000000000000000 ) ) ;
#229 = CARTESIAN_POINT ( 'NONE',  ( 3.000000000000000000, 6.349999999999998800, 6.349999999999999600 ) ) ;
#230 =( NAMED_UNIT ( * ) PLANE_ANGLE_UNIT ( ) SI_UNIT ( $, .RADIAN. ) );
#231 = APPROVAL_ROLE ( '' ) ;
#232 = LINE ( 'NONE', #86, #136 ) ;
#233 = CARTESIAN_POINT ( 'NONE',  ( 3.000000000000000000, 6.349999999999998800, -6.349999999999999600 ) ) ;
#234 = PLANE ( 'NONE',  #205 ) ;
#235 = DATE_TIME_ROLE ( 'classification_date' ) ;
#236 = LOCAL_TIME ( 16, 48, 28.00000000000000000, #185 ) ;
#237 = LINE ( 'NONE', #192, #128 ) ;
ENDSEC;
END-ISO-10303-21;
