ISO-10303-21;
HEADER;
FILE_DESCRIPTION (( 'STEP AP203' ),
    '1' );
FILE_NAME ('Web Model 13396_13397.step',
    '2021-06-30T20:28:38',
    ( '' ),
    ( '' ),
    'SwSTEP 2.0',
    'SolidWorks 2018',
    '' );
FILE_SCHEMA (( 'CONFIG_CONTROL_DESIGN' ));
ENDSEC;

DATA;
#1 = VERTEX_POINT ( 'NONE', #168 ) ;
#2 = EDGE_LOOP ( 'NONE', ( #35, #172, #108, #220 ) ) ;
#3 = CC_DESIGN_APPROVAL ( #109, ( #171 ) ) ;
#4 = APPROVAL_DATE_TIME ( #105, #109 ) ;
#5 = MANIFOLD_SOLID_BREP ( 'Boss-Extrude1', #58 ) ;
#6 = ORIENTED_EDGE ( 'NONE', *, *, #102, .F. ) ;
#7 = AXIS2_PLACEMENT_3D ( 'NONE', #112, #33, #155 ) ;
#8 = VECTOR ( 'NONE', #204, 1000.000000000000000 ) ;
#9 = COORDINATED_UNIVERSAL_TIME_OFFSET ( 5, 0, .BEHIND. ) ;
#10 = DIRECTION ( 'NONE',  ( -1.000000000000000000, -0.000000000000000000, -0.000000000000000000 ) ) ;
#11 = COORDINATED_UNIVERSAL_TIME_OFFSET ( 5, 0, .BEHIND. ) ;
#12 = EDGE_LOOP ( 'NONE', ( #101, #114, #144, #79 ) ) ;
#13 = PRODUCT_DEFINITION ( 'UNKNOWN', '', #171, #233 ) ;
#14 = PERSON_AND_ORGANIZATION ( #111, #78 ) ;
#15 = PERSON_AND_ORGANIZATION_ROLE ( 'creator' ) ;
#16 = ORIENTED_EDGE ( 'NONE', *, *, #167, .F. ) ;
#17 = APPLICATION_CONTEXT ( 'configuration controlled 3d designs of mechanical parts and assemblies' ) ;
#18 = CARTESIAN_POINT ( 'NONE',  ( 6.249999999999998224, -6.249999999999998224, 1.000000000000000000 ) ) ;
#19 = APPROVAL_STATUS ( 'not_yet_approved' ) ;
#20 = CARTESIAN_POINT ( 'NONE',  ( -6.250000000000003553, 6.250000000000001776, 0.000000000000000000 ) ) ;
#21 = VECTOR ( 'NONE', #129, 1000.000000000000000 ) ;
#22 = PERSON_AND_ORGANIZATION ( #111, #78 ) ;
#23 = EDGE_CURVE ( 'NONE', #104, #208, #39, .T. ) ;
#24 = SHAPE_DEFINITION_REPRESENTATION ( #201, #70 ) ;
#25 = VECTOR ( 'NONE', #34, 1000.000000000000000 ) ;
#26 = CC_DESIGN_PERSON_AND_ORGANIZATION_ASSIGNMENT ( #153, #36, ( #171 ) ) ;
#27 = LINE ( 'NONE', #228, #236 ) ;
#28 = VERTEX_POINT ( 'NONE', #90 ) ;
#29 = CARTESIAN_POINT ( 'NONE',  ( -6.250000000000003553, 6.250000000000001776, 1.000000000000000000 ) ) ;
#30 = APPROVAL_PERSON_ORGANIZATION ( #46, #106, #135 ) ;
#31 = CC_DESIGN_APPROVAL ( #140, ( #122 ) ) ;
#32 = LINE ( 'NONE', #81, #121 ) ;
#33 = DIRECTION ( 'NONE',  ( 0.000000000000000000, 1.000000000000000000, 0.000000000000000000 ) ) ;
#34 = DIRECTION ( 'NONE',  ( -1.387778780781445676E-16, 1.000000000000000000, -0.000000000000000000 ) ) ;
#35 = ORIENTED_EDGE ( 'NONE', *, *, #137, .F. ) ;
#36 = PERSON_AND_ORGANIZATION_ROLE ( 'creator' ) ;
#37 = APPROVAL_ROLE ( '' ) ;
#38 = APPROVAL_PERSON_ORGANIZATION ( #22, #109, #77 ) ;
#39 = LINE ( 'NONE', #69, #221 ) ;
#40 = APPLICATION_PROTOCOL_DEFINITION ( 'international standard', 'config_control_design', 1994, #17 ) ;
#41 = EDGE_CURVE ( 'NONE', #126, #1, #32, .T. ) ;
#42 = ORIENTED_EDGE ( 'NONE', *, *, #203, .T. ) ;
#43 = CC_DESIGN_SECURITY_CLASSIFICATION ( #122, ( #171 ) ) ;
#44 = ORIENTED_EDGE ( 'NONE', *, *, #151, .F. ) ;
#45 = DIRECTION ( 'NONE',  ( -0.000000000000000000, 0.000000000000000000, 1.000000000000000000 ) ) ;
#46 = PERSON_AND_ORGANIZATION ( #111, #78 ) ;
#47 = DATE_AND_TIME ( #143, #95 ) ;
#48 = CARTESIAN_POINT ( 'NONE',  ( 6.249999999999996447, 6.250000000000001776, 1.000000000000000000 ) ) ;
#49 = EDGE_LOOP ( 'NONE', ( #85, #6, #193, #165 ) ) ;
#50 =( NAMED_UNIT ( * ) PLANE_ANGLE_UNIT ( ) SI_UNIT ( $, .RADIAN. ) );
#51 = APPROVAL_DATE_TIME ( #212, #106 ) ;
#52 = ADVANCED_FACE ( 'NONE', ( #216 ), #185, .F. ) ;
#53 = PERSON_AND_ORGANIZATION_ROLE ( 'classification_officer' ) ;
#54 = SECURITY_CLASSIFICATION_LEVEL ( 'unclassified' ) ;
#55 = AXIS2_PLACEMENT_3D ( 'NONE', #29, #66, #197 ) ;
#56 = CARTESIAN_POINT ( 'NONE',  ( 0.000000000000000000, 0.000000000000000000, 1.000000000000000000 ) ) ;
#57 = FACE_OUTER_BOUND ( 'NONE', #148, .T. ) ;
#58 = CLOSED_SHELL ( 'NONE', ( #235, #52, #119, #139, #211, #178 ) ) ;
#59 = LINE ( 'NONE', #227, #8 ) ;
#60 = EDGE_CURVE ( 'NONE', #186, #104, #198, .T. ) ;
#61 = APPROVAL_DATE_TIME ( #92, #140 ) ;
#62 = APPROVAL_PERSON_ORGANIZATION ( #133, #140, #37 ) ;
#63 = VECTOR ( 'NONE', #71, 1000.000000000000000 ) ;
#64 = PERSON_AND_ORGANIZATION ( #111, #78 ) ;
#65 = ORIENTED_EDGE ( 'NONE', *, *, #60, .F. ) ;
#66 = DIRECTION ( 'NONE',  ( 0.000000000000000000, -1.000000000000000000, 0.000000000000000000 ) ) ;
#67 = CC_DESIGN_DATE_AND_TIME_ASSIGNMENT ( #47, #120, ( #122 ) ) ;
#68 = CALENDAR_DATE ( 2021, 30, 6 ) ;
#69 = CARTESIAN_POINT ( 'NONE',  ( -6.250000000000003553, 6.250000000000001776, 1.000000000000000000 ) ) ;
#70 = ADVANCED_BREP_SHAPE_REPRESENTATION ( 'Web Model 13396_13397', ( #5, #237 ), #149 ) ;
#71 = DIRECTION ( 'NONE',  ( 1.000000000000000000, 0.000000000000000000, 0.000000000000000000 ) ) ;
#72 = CARTESIAN_POINT ( 'NONE',  ( 6.249999999999996447, 6.250000000000001776, 0.000000000000000000 ) ) ;
#73 = PLANE ( 'NONE',  #187 ) ;
#74 = DIRECTION ( 'NONE',  ( 0.000000000000000000, 0.000000000000000000, 1.000000000000000000 ) ) ;
#75 = CARTESIAN_POINT ( 'NONE',  ( 6.249999999999996447, 6.250000000000001776, 1.000000000000000000 ) ) ;
#76 = FACE_OUTER_BOUND ( 'NONE', #49, .T. ) ;
#77 = APPROVAL_ROLE ( '' ) ;
#78 = ORGANIZATION ( 'UNSPECIFIED', 'UNSPECIFIED', '' ) ;
#79 = ORIENTED_EDGE ( 'NONE', *, *, #156, .T. ) ;
#80 = LINE ( 'NONE', #20, #229 ) ;
#81 = CARTESIAN_POINT ( 'NONE',  ( -6.250000000000003553, 6.250000000000001776, 0.000000000000000000 ) ) ;
#82 = CARTESIAN_POINT ( 'NONE',  ( -6.250000000000001776, -6.249999999999998224, 1.000000000000000000 ) ) ;
#83 = PLANE ( 'NONE',  #175 ) ;
#84 = PRODUCT_RELATED_PRODUCT_CATEGORY ( 'detail', '', ( #132 ) ) ;
#85 = ORIENTED_EDGE ( 'NONE', *, *, #192, .T. ) ;
#86 = MECHANICAL_CONTEXT ( 'NONE', #17, 'mechanical' ) ;
#87 = APPROVAL_STATUS ( 'not_yet_approved' ) ;
#88 = EDGE_LOOP ( 'NONE', ( #179, #16, #65, #195 ) ) ;
#89 = VERTEX_POINT ( 'NONE', #224 ) ;
#90 = CARTESIAN_POINT ( 'NONE',  ( 6.249999999999998224, -6.249999999999998224, 0.000000000000000000 ) ) ;
#91 = PERSON_AND_ORGANIZATION ( #111, #78 ) ;
#92 = DATE_AND_TIME ( #145, #190 ) ;
#93 = DIRECTION ( 'NONE',  ( -1.387778780781445676E-16, 1.000000000000000000, 0.000000000000000000 ) ) ;
#94 = VECTOR ( 'NONE', #118, 1000.000000000000000 ) ;
#95 = LOCAL_TIME ( 16, 28, 38.00000000000000000, #11 ) ;
#96 = ORIENTED_EDGE ( 'NONE', *, *, #199, .F. ) ;
#97 = FACE_OUTER_BOUND ( 'NONE', #182, .T. ) ;
#98 =( NAMED_UNIT ( * ) SI_UNIT ( $, .STERADIAN. ) SOLID_ANGLE_UNIT ( ) );
#99 = ORIENTED_EDGE ( 'NONE', *, *, #23, .F. ) ;
#100 = PERSON_AND_ORGANIZATION ( #111, #78 ) ;
#101 = ORIENTED_EDGE ( 'NONE', *, *, #151, .T. ) ;
#102 = EDGE_CURVE ( 'NONE', #200, #28, #107, .T. ) ;
#103 = LOCAL_TIME ( 16, 28, 38.00000000000000000, #205 ) ;
#104 = VERTEX_POINT ( 'NONE', #152 ) ;
#105 = DATE_AND_TIME ( #181, #162 ) ;
#106 = APPROVAL ( #115, 'UNSPECIFIED' ) ;
#107 = LINE ( 'NONE', #223, #196 ) ;
#108 = ORIENTED_EDGE ( 'NONE', *, *, #203, .F. ) ;
#109 = APPROVAL ( #87, 'UNSPECIFIED' ) ;
#110 = DIRECTION ( 'NONE',  ( -0.000000000000000000, -0.000000000000000000, -1.000000000000000000 ) ) ;
#111 = PERSON ( 'UNSPECIFIED', 'UNSPECIFIED', 'UNSPECIFIED', ('UNSPECIFIED'), ('UNSPECIFIED'), ('UNSPECIFIED') ) ;
#112 = CARTESIAN_POINT ( 'NONE',  ( -6.250000000000001776, -6.249999999999998224, 1.000000000000000000 ) ) ;
#113 = EDGE_CURVE ( 'NONE', #186, #126, #27, .T. ) ;
#114 = ORIENTED_EDGE ( 'NONE', *, *, #60, .T. ) ;
#115 = APPROVAL_STATUS ( 'not_yet_approved' ) ;
#116 =( LENGTH_UNIT ( ) NAMED_UNIT ( * ) SI_UNIT ( .MILLI., .METRE. ) );
#117 = VECTOR ( 'NONE', #209, 1000.000000000000000 ) ;
#118 = DIRECTION ( 'NONE',  ( 1.000000000000000000, 0.000000000000000000, 0.000000000000000000 ) ) ;
#119 = ADVANCED_FACE ( 'NONE', ( #97 ), #83, .F. ) ;
#120 = DATE_TIME_ROLE ( 'classification_date' ) ;
#121 = VECTOR ( 'NONE', #128, 1000.000000000000000 ) ;
#122 = SECURITY_CLASSIFICATION ( '', '', #54 ) ;
#123 = DIRECTION ( 'NONE',  ( -0.000000000000000000, 0.000000000000000000, 1.000000000000000000 ) ) ;
#124 = LINE ( 'NONE', #82, #63 ) ;
#125 = CC_DESIGN_PERSON_AND_ORGANIZATION_ASSIGNMENT ( #100, #141, ( #171 ) ) ;
#126 = VERTEX_POINT ( 'NONE', #72 ) ;
#127 = ORIENTED_EDGE ( 'NONE', *, *, #113, .F. ) ;
#128 = DIRECTION ( 'NONE',  ( -1.000000000000000000, -0.000000000000000000, -0.000000000000000000 ) ) ;
#129 = DIRECTION ( 'NONE',  ( -1.387778780781445676E-16, 1.000000000000000000, -0.000000000000000000 ) ) ;
#130 = CARTESIAN_POINT ( 'NONE',  ( 6.249999999999996447, 6.250000000000001776, 0.000000000000000000 ) ) ;
#131 = CC_DESIGN_PERSON_AND_ORGANIZATION_ASSIGNMENT ( #64, #53, ( #122 ) ) ;
#132 = PRODUCT ( 'Web Model 13396_13397', 'Web Model 13396_13397', '', ( #86 ) ) ;
#133 = PERSON_AND_ORGANIZATION ( #111, #78 ) ;
#134 = CARTESIAN_POINT ( 'NONE',  ( -6.250000000000003553, 6.250000000000001776, 1.000000000000000000 ) ) ;
#135 = APPROVAL_ROLE ( '' ) ;
#136 = LOCAL_TIME ( 16, 28, 38.00000000000000000, #184 ) ;
#137 = EDGE_CURVE ( 'NONE', #28, #126, #166, .T. ) ;
#138 = PERSON_AND_ORGANIZATION_ROLE ( 'design_owner' ) ;
#139 = ADVANCED_FACE ( 'NONE', ( #76 ), #154, .F. ) ;
#140 = APPROVAL ( #19, 'UNSPECIFIED' ) ;
#141 = PERSON_AND_ORGANIZATION_ROLE ( 'design_supplier' ) ;
#142 = DIRECTION ( 'NONE',  ( 1.000000000000000000, 0.000000000000000000, 0.000000000000000000 ) ) ;
#143 = CALENDAR_DATE ( 2021, 30, 6 ) ;
#144 = ORIENTED_EDGE ( 'NONE', *, *, #23, .T. ) ;
#145 = CALENDAR_DATE ( 2021, 30, 6 ) ;
#146 = VECTOR ( 'NONE', #10, 1000.000000000000000 ) ;
#147 = AXIS2_PLACEMENT_3D ( 'NONE', #56, #123, #142 ) ;
#148 = EDGE_LOOP ( 'NONE', ( #177, #127, #44, #159 ) ) ;
#149 =( GEOMETRIC_REPRESENTATION_CONTEXT ( 3 ) GLOBAL_UNCERTAINTY_ASSIGNED_CONTEXT ( ( #174 ) ) GLOBAL_UNIT_ASSIGNED_CONTEXT ( ( #116, #50, #98 ) ) REPRESENTATION_CONTEXT ( 'NONE', 'WORKASPACE' ) );
#150 = ORIENTED_EDGE ( 'NONE', *, *, #167, .T. ) ;
#151 = EDGE_CURVE ( 'NONE', #200, #186, #222, .T. ) ;
#152 = CARTESIAN_POINT ( 'NONE',  ( -6.250000000000003553, 6.250000000000001776, 1.000000000000000000 ) ) ;
#153 = PERSON_AND_ORGANIZATION ( #111, #78 ) ;
#154 = PLANE ( 'NONE',  #7 ) ;
#155 = DIRECTION ( 'NONE',  ( 0.000000000000000000, -0.000000000000000000, 1.000000000000000000 ) ) ;
#156 = EDGE_CURVE ( 'NONE', #208, #200, #124, .T. ) ;
#157 = PLANE ( 'NONE',  #147 ) ;
#158 = APPLICATION_CONTEXT ( 'configuration controlled 3d designs of mechanical parts and assemblies' ) ;
#159 = ORIENTED_EDGE ( 'NONE', *, *, #102, .T. ) ;
#160 = PLANE ( 'NONE',  #219 ) ;
#161 = FACE_OUTER_BOUND ( 'NONE', #12, .T. ) ;
#162 = LOCAL_TIME ( 16, 28, 38.00000000000000000, #169 ) ;
#163 = CARTESIAN_POINT ( 'NONE',  ( -6.250000000000001776, -6.249999999999998224, 1.000000000000000000 ) ) ;
#164 = CC_DESIGN_PERSON_AND_ORGANIZATION_ASSIGNMENT ( #91, #15, ( #13 ) ) ;
#165 = ORIENTED_EDGE ( 'NONE', *, *, #199, .T. ) ;
#166 = LINE ( 'NONE', #130, #25 ) ;
#167 = EDGE_CURVE ( 'NONE', #104, #1, #59, .T. ) ;
#168 = CARTESIAN_POINT ( 'NONE',  ( -6.250000000000003553, 6.250000000000001776, 0.000000000000000000 ) ) ;
#169 = COORDINATED_UNIVERSAL_TIME_OFFSET ( 5, 0, .BEHIND. ) ;
#170 = DIRECTION ( 'NONE',  ( 1.000000000000000000, 1.387778780781445676E-16, -0.000000000000000000 ) ) ;
#171 = PRODUCT_DEFINITION_FORMATION_WITH_SPECIFIED_SOURCE ( 'ANY', '', #132, .NOT_KNOWN. ) ;
#172 = ORIENTED_EDGE ( 'NONE', *, *, #192, .F. ) ;
#173 = DIRECTION ( 'NONE',  ( 1.387778780781445676E-16, -1.000000000000000000, 0.000000000000000000 ) ) ;
#174 = UNCERTAINTY_MEASURE_WITH_UNIT (LENGTH_MEASURE( 1.000000000000000082E-05 ), #116, 'distance_accuracy_value', 'NONE');
#175 = AXIS2_PLACEMENT_3D ( 'NONE', #134, #170, #93 ) ;
#176 = DIRECTION ( 'NONE',  ( 1.387778780781445676E-16, -1.000000000000000000, 0.000000000000000000 ) ) ;
#177 = ORIENTED_EDGE ( 'NONE', *, *, #137, .T. ) ;
#178 = ADVANCED_FACE ( 'NONE', ( #194 ), #73, .F. ) ;
#179 = ORIENTED_EDGE ( 'NONE', *, *, #41, .T. ) ;
#180 = CC_DESIGN_PERSON_AND_ORGANIZATION_ASSIGNMENT ( #14, #138, ( #132 ) ) ;
#181 = CALENDAR_DATE ( 2021, 30, 6 ) ;
#182 = EDGE_LOOP ( 'NONE', ( #42, #96, #99, #150 ) ) ;
#183 = DIRECTION ( 'NONE',  ( 1.387778780781445676E-16, -1.000000000000000000, 0.000000000000000000 ) ) ;
#184 = COORDINATED_UNIVERSAL_TIME_OFFSET ( 5, 0, .BEHIND. ) ;
#185 = PLANE ( 'NONE',  #55 ) ;
#186 = VERTEX_POINT ( 'NONE', #48 ) ;
#187 = AXIS2_PLACEMENT_3D ( 'NONE', #188, #45, #206 ) ;
#188 = CARTESIAN_POINT ( 'NONE',  ( 0.000000000000000000, 0.000000000000000000, 0.000000000000000000 ) ) ;
#189 = LINE ( 'NONE', #163, #117 ) ;
#190 = LOCAL_TIME ( 16, 28, 38.00000000000000000, #9 ) ;
#191 = DATE_TIME_ROLE ( 'creation_date' ) ;
#192 = EDGE_CURVE ( 'NONE', #89, #28, #202, .T. ) ;
#193 = ORIENTED_EDGE ( 'NONE', *, *, #156, .F. ) ;
#194 = FACE_OUTER_BOUND ( 'NONE', #2, .T. ) ;
#195 = ORIENTED_EDGE ( 'NONE', *, *, #113, .T. ) ;
#196 = VECTOR ( 'NONE', #231, 1000.000000000000000 ) ;
#197 = DIRECTION ( 'NONE',  ( 0.000000000000000000, -0.000000000000000000, -1.000000000000000000 ) ) ;
#198 = LINE ( 'NONE', #225, #146 ) ;
#199 = EDGE_CURVE ( 'NONE', #208, #89, #189, .T. ) ;
#200 = VERTEX_POINT ( 'NONE', #18 ) ;
#201 = PRODUCT_DEFINITION_SHAPE ( 'NONE', 'NONE',  #13 ) ;
#202 = LINE ( 'NONE', #215, #94 ) ;
#203 = EDGE_CURVE ( 'NONE', #1, #89, #80, .T. ) ;
#204 = DIRECTION ( 'NONE',  ( -0.000000000000000000, -0.000000000000000000, -1.000000000000000000 ) ) ;
#205 = COORDINATED_UNIVERSAL_TIME_OFFSET ( 5, 0, .BEHIND. ) ;
#206 = DIRECTION ( 'NONE',  ( 1.000000000000000000, 0.000000000000000000, 0.000000000000000000 ) ) ;
#207 = CARTESIAN_POINT ( 'NONE',  ( -6.250000000000001776, -6.249999999999998224, 1.000000000000000000 ) ) ;
#208 = VERTEX_POINT ( 'NONE', #207 ) ;
#209 = DIRECTION ( 'NONE',  ( -0.000000000000000000, -0.000000000000000000, -1.000000000000000000 ) ) ;
#210 = DIRECTION ( 'NONE',  ( -1.000000000000000000, -1.387778780781445676E-16, 0.000000000000000000 ) ) ;
#211 = ADVANCED_FACE ( 'NONE', ( #161 ), #157, .T. ) ;
#212 = DATE_AND_TIME ( #68, #103 ) ;
#213 = CALENDAR_DATE ( 2021, 30, 6 ) ;
#214 = CC_DESIGN_APPROVAL ( #106, ( #13 ) ) ;
#215 = CARTESIAN_POINT ( 'NONE',  ( -6.250000000000001776, -6.249999999999998224, 0.000000000000000000 ) ) ;
#216 = FACE_OUTER_BOUND ( 'NONE', #88, .T. ) ;
#217 = DIRECTION ( 'NONE',  ( 1.000000000000000000, 0.000000000000000000, 0.000000000000000000 ) ) ;
#218 = DATE_AND_TIME ( #213, #136 ) ;
#219 = AXIS2_PLACEMENT_3D ( 'NONE', #75, #210, #173 ) ;
#220 = ORIENTED_EDGE ( 'NONE', *, *, #41, .F. ) ;
#221 = VECTOR ( 'NONE', #183, 1000.000000000000000 ) ;
#222 = LINE ( 'NONE', #230, #21 ) ;
#223 = CARTESIAN_POINT ( 'NONE',  ( 6.249999999999998224, -6.249999999999998224, 1.000000000000000000 ) ) ;
#224 = CARTESIAN_POINT ( 'NONE',  ( -6.250000000000001776, -6.249999999999998224, 0.000000000000000000 ) ) ;
#225 = CARTESIAN_POINT ( 'NONE',  ( -6.250000000000003553, 6.250000000000001776, 1.000000000000000000 ) ) ;
#226 = CC_DESIGN_DATE_AND_TIME_ASSIGNMENT ( #218, #191, ( #13 ) ) ;
#227 = CARTESIAN_POINT ( 'NONE',  ( -6.250000000000003553, 6.250000000000001776, 1.000000000000000000 ) ) ;
#228 = CARTESIAN_POINT ( 'NONE',  ( 6.249999999999996447, 6.250000000000001776, 1.000000000000000000 ) ) ;
#229 = VECTOR ( 'NONE', #176, 1000.000000000000000 ) ;
#230 = CARTESIAN_POINT ( 'NONE',  ( 6.249999999999996447, 6.250000000000001776, 1.000000000000000000 ) ) ;
#231 = DIRECTION ( 'NONE',  ( -0.000000000000000000, -0.000000000000000000, -1.000000000000000000 ) ) ;
#232 = APPLICATION_PROTOCOL_DEFINITION ( 'international standard', 'config_control_design', 1994, #158 ) ;
#233 = DESIGN_CONTEXT ( 'detailed design', #158, 'design' ) ;
#234 = CARTESIAN_POINT ( 'NONE',  ( 0.000000000000000000, 0.000000000000000000, 0.000000000000000000 ) ) ;
#235 = ADVANCED_FACE ( 'NONE', ( #57 ), #160, .F. ) ;
#236 = VECTOR ( 'NONE', #110, 1000.000000000000000 ) ;
#237 = AXIS2_PLACEMENT_3D ( 'NONE', #234, #74, #217 ) ;
ENDSEC;
END-ISO-10303-21;
