ISO-10303-21;
HEADER;
FILE_DESCRIPTION (( 'STEP AP203' ),
    '1' );
FILE_NAME ('Web Model 14743_14744.step',
    '2020-04-13T13:43:19',
    ( '' ),
    ( '' ),
    'SwSTEP 2.0',
    'SolidWorks 2018',
    '' );
FILE_SCHEMA (( 'CONFIG_CONTROL_DESIGN' ));
ENDSEC;

DATA;
#1 = EDGE_CURVE ( 'NONE', #160, #164, #116, .T. ) ;
#2 = APPROVAL_PERSON_ORGANIZATION ( #122, #106, #74 ) ;
#3 = APPLICATION_PROTOCOL_DEFINITION ( 'international standard', 'config_control_design', 1994, #126 ) ;
#4 = DIRECTION ( 'NONE',  ( 0.0000000000000000000, 0.0000000000000000000, -1.000000000000000000 ) ) ;
#5 = DIRECTION ( 'NONE',  ( 0.0000000000000000000, 0.0000000000000000000, -1.000000000000000000 ) ) ;
#6 = COORDINATED_UNIVERSAL_TIME_OFFSET ( 5, 0, .BEHIND. ) ;
#7 = ORIENTED_EDGE ( 'NONE', *, *, #102, .T. ) ;
#8 = APPROVAL_STATUS ( 'not_yet_approved' ) ;
#9 = EDGE_CURVE ( 'NONE', #164, #142, #47, .T. ) ;
#10 = PERSON_AND_ORGANIZATION ( #78, #82 ) ;
#11 = AXIS2_PLACEMENT_3D ( 'NONE', #84, #33, #30 ) ;
#12 = CALENDAR_DATE ( 2020, 13, 4 ) ;
#13 = CARTESIAN_POINT ( 'NONE',  ( 1.500000000000000000, 0.0000000000000000000, 0.0000000000000000000 ) ) ;
#14 = ORIENTED_EDGE ( 'NONE', *, *, #9, .F. ) ;
#15 = COORDINATED_UNIVERSAL_TIME_OFFSET ( 5, 0, .BEHIND. ) ;
#16 =( NAMED_UNIT ( * ) PLANE_ANGLE_UNIT ( ) SI_UNIT ( $, .RADIAN. ) );
#17 = EDGE_CURVE ( 'NONE', #142, #164, #139, .T. ) ;
#18 = CARTESIAN_POINT ( 'NONE',  ( -1.500000000000000000, 0.0000000000000000000, 0.0000000000000000000 ) ) ;
#19 = VERTEX_POINT ( 'NONE', #22 ) ;
#20 = AXIS2_PLACEMENT_3D ( 'NONE', #157, #110, #80 ) ;
#21 = CARTESIAN_POINT ( 'NONE',  ( 1.500000000000000000, 0.0000000000000000000, 12.69999999999999929 ) ) ;
#22 = CARTESIAN_POINT ( 'NONE',  ( 1.500000000000000000, 0.0000000000000000000, 12.69999999999999929 ) ) ;
#23 = APPROVAL_ROLE ( '' ) ;
#24 = ORIENTED_EDGE ( 'NONE', *, *, #108, .T. ) ;
#25 = CC_DESIGN_DATE_AND_TIME_ASSIGNMENT ( #170, #129, ( #87 ) ) ;
#26 = CIRCLE ( 'NONE', #53, 12.69999999999999929 ) ;
#27 = FACE_OUTER_BOUND ( 'NONE', #58, .T. ) ;
#28 = DIRECTION ( 'NONE',  ( 0.0000000000000000000, 0.0000000000000000000, -1.000000000000000000 ) ) ;
#29 = DATE_AND_TIME ( #12, #57 ) ;
#30 = DIRECTION ( 'NONE',  ( 0.0000000000000000000, 0.0000000000000000000, 1.000000000000000000 ) ) ;
#31 = CC_DESIGN_PERSON_AND_ORGANIZATION_ASSIGNMENT ( #37, #119, ( #156 ) ) ;
#32 = CARTESIAN_POINT ( 'NONE',  ( 1.500000000000000000, 1.555301434917138433E-15, -12.69999999999999929 ) ) ;
#33 = DIRECTION ( 'NONE',  ( -1.000000000000000000, -0.0000000000000000000, -0.0000000000000000000 ) ) ;
#34 = PERSON_AND_ORGANIZATION ( #78, #82 ) ;
#35 = MECHANICAL_CONTEXT ( 'NONE', #126, 'mechanical' ) ;
#36 = FACE_OUTER_BOUND ( 'NONE', #131, .T. ) ;
#37 = PERSON_AND_ORGANIZATION ( #78, #82 ) ;
#38 = PERSON_AND_ORGANIZATION_ROLE ( 'creator' ) ;
#39 = EDGE_LOOP ( 'NONE', ( #104, #14 ) ) ;
#40 = CALENDAR_DATE ( 2020, 13, 4 ) ;
#41 = CC_DESIGN_PERSON_AND_ORGANIZATION_ASSIGNMENT ( #10, #49, ( #114 ) ) ;
#42 = ORIENTED_EDGE ( 'NONE', *, *, #1, .F. ) ;
#43 = CALENDAR_DATE ( 2020, 13, 4 ) ;
#44 = APPROVAL ( #73, 'UNSPECIFIED' ) ;
#45 = ADVANCED_BREP_SHAPE_REPRESENTATION ( 'Web Model 14743_14744', ( #172, #93 ), #75 ) ;
#46 = UNCERTAINTY_MEASURE_WITH_UNIT (LENGTH_MEASURE( 1.000000000000000082E-05 ), #109, 'distance_accuracy_value', 'NONE');
#47 = CIRCLE ( 'NONE', #69, 12.69999999999999929 ) ;
#48 = LOCAL_TIME ( 9, 43, 19.00000000000000000, #6 ) ;
#49 = PERSON_AND_ORGANIZATION_ROLE ( 'design_owner' ) ;
#50 = DIRECTION ( 'NONE',  ( -1.000000000000000000, -0.0000000000000000000, -0.0000000000000000000 ) ) ;
#51 = COORDINATED_UNIVERSAL_TIME_OFFSET ( 5, 0, .BEHIND. ) ;
#52 =( NAMED_UNIT ( * ) SI_UNIT ( $, .STERADIAN. ) SOLID_ANGLE_UNIT ( ) );
#53 = AXIS2_PLACEMENT_3D ( 'NONE', #159, #166, #5 ) ;
#54 = SECURITY_CLASSIFICATION_LEVEL ( 'unclassified' ) ;
#55 = APPLICATION_PROTOCOL_DEFINITION ( 'international standard', 'config_control_design', 1994, #149 ) ;
#56 = APPROVAL_PERSON_ORGANIZATION ( #90, #124, #23 ) ;
#57 = LOCAL_TIME ( 9, 43, 19.00000000000000000, #103 ) ;
#58 = EDGE_LOOP ( 'NONE', ( #148, #105, #161, #165 ) ) ;
#59 = PERSON_AND_ORGANIZATION ( #78, #82 ) ;
#60 = CALENDAR_DATE ( 2020, 13, 4 ) ;
#61 = DIRECTION ( 'NONE',  ( 0.0000000000000000000, 0.0000000000000000000, -1.000000000000000000 ) ) ;
#62 = CC_DESIGN_DATE_AND_TIME_ASSIGNMENT ( #162, #173, ( #156 ) ) ;
#63 = APPROVAL_PERSON_ORGANIZATION ( #117, #44, #141 ) ;
#64 = CARTESIAN_POINT ( 'NONE',  ( 0.0000000000000000000, 0.0000000000000000000, 0.0000000000000000000 ) ) ;
#65 = ORIENTED_EDGE ( 'NONE', *, *, #108, .F. ) ;
#66 = PLANE ( 'NONE',  #163 ) ;
#67 = CARTESIAN_POINT ( 'NONE',  ( 1.500000000000000000, 1.555301434917138433E-15, -12.69999999999999929 ) ) ;
#68 = DIRECTION ( 'NONE',  ( 0.0000000000000000000, 0.0000000000000000000, 1.000000000000000000 ) ) ;
#69 = AXIS2_PLACEMENT_3D ( 'NONE', #158, #95, #4 ) ;
#70 = DIRECTION ( 'NONE',  ( 1.000000000000000000, 0.0000000000000000000, 0.0000000000000000000 ) ) ;
#71 = CYLINDRICAL_SURFACE ( 'NONE', #120, 12.69999999999999929 ) ;
#72 = ADVANCED_FACE ( 'NONE', ( #36 ), #81, .T. ) ;
#73 = APPROVAL_STATUS ( 'not_yet_approved' ) ;
#74 = APPROVAL_ROLE ( '' ) ;
#75 =( GEOMETRIC_REPRESENTATION_CONTEXT ( 3 ) GLOBAL_UNCERTAINTY_ASSIGNED_CONTEXT ( ( #46 ) ) GLOBAL_UNIT_ASSIGNED_CONTEXT ( ( #109, #16, #52 ) ) REPRESENTATION_CONTEXT ( 'NONE', 'WORKASPACE' ) );
#76 = VECTOR ( 'NONE', #137, 1000.000000000000000 ) ;
#77 = CC_DESIGN_SECURITY_CLASSIFICATION ( #156, ( #98 ) ) ;
#78 = PERSON ( 'UNSPECIFIED', 'UNSPECIFIED', 'UNSPECIFIED', ('UNSPECIFIED'), ('UNSPECIFIED'), ('UNSPECIFIED') ) ;
#79 = ORIENTED_EDGE ( 'NONE', *, *, #17, .T. ) ;
#80 = DIRECTION ( 'NONE',  ( 0.0000000000000000000, 0.0000000000000000000, -1.000000000000000000 ) ) ;
#81 = PLANE ( 'NONE',  #100 ) ;
#82 = ORGANIZATION ( 'UNSPECIFIED', 'UNSPECIFIED', '' ) ;
#83 = CC_DESIGN_PERSON_AND_ORGANIZATION_ASSIGNMENT ( #34, #85, ( #87 ) ) ;
#84 = CARTESIAN_POINT ( 'NONE',  ( 1.500000000000000000, 0.0000000000000000000, 0.0000000000000000000 ) ) ;
#85 = PERSON_AND_ORGANIZATION_ROLE ( 'creator' ) ;
#86 = ADVANCED_FACE ( 'NONE', ( #134 ), #66, .F. ) ;
#87 = PRODUCT_DEFINITION ( 'UNKNOWN', '', #98, #133 ) ;
#88 = CIRCLE ( 'NONE', #20, 12.69999999999999929 ) ;
#89 = LOCAL_TIME ( 9, 43, 19.00000000000000000, #15 ) ;
#90 = PERSON_AND_ORGANIZATION ( #78, #82 ) ;
#91 = DATE_AND_TIME ( #60, #48 ) ;
#92 = DIRECTION ( 'NONE',  ( 1.000000000000000000, 0.0000000000000000000, 0.0000000000000000000 ) ) ;
#93 = AXIS2_PLACEMENT_3D ( 'NONE', #64, #68, #94 ) ;
#94 = DIRECTION ( 'NONE',  ( 1.000000000000000000, 0.0000000000000000000, 0.0000000000000000000 ) ) ;
#95 = DIRECTION ( 'NONE',  ( 1.000000000000000000, 0.0000000000000000000, 0.0000000000000000000 ) ) ;
#96 = CARTESIAN_POINT ( 'NONE',  ( -1.500000000000000000, 0.0000000000000000000, 12.69999999999999929 ) ) ;
#97 = SHAPE_DEFINITION_REPRESENTATION ( #140, #45 ) ;
#98 = PRODUCT_DEFINITION_FORMATION_WITH_SPECIFIED_SOURCE ( 'ANY', '', #114, .NOT_KNOWN. ) ;
#99 = DIRECTION ( 'NONE',  ( 0.0000000000000000000, 0.0000000000000000000, -1.000000000000000000 ) ) ;
#100 = AXIS2_PLACEMENT_3D ( 'NONE', #113, #128, #99 ) ;
#101 = ADVANCED_FACE ( 'NONE', ( #144 ), #155, .T. ) ;
#102 = EDGE_CURVE ( 'NONE', #19, #142, #125, .T. ) ;
#103 = COORDINATED_UNIVERSAL_TIME_OFFSET ( 5, 0, .BEHIND. ) ;
#104 = ORIENTED_EDGE ( 'NONE', *, *, #17, .F. ) ;
#105 = ORIENTED_EDGE ( 'NONE', *, *, #1, .T. ) ;
#106 = APPROVAL ( #138, 'UNSPECIFIED' ) ;
#107 = VECTOR ( 'NONE', #50, 1000.000000000000000 ) ;
#108 = EDGE_CURVE ( 'NONE', #19, #160, #88, .T. ) ;
#109 =( LENGTH_UNIT ( ) NAMED_UNIT ( * ) SI_UNIT ( .MILLI., .METRE. ) );
#110 = DIRECTION ( 'NONE',  ( 1.000000000000000000, 0.0000000000000000000, 0.0000000000000000000 ) ) ;
#111 = DIRECTION ( 'NONE',  ( 0.0000000000000000000, 0.0000000000000000000, 1.000000000000000000 ) ) ;
#112 = PRODUCT_RELATED_PRODUCT_CATEGORY ( 'detail', '', ( #114 ) ) ;
#113 = CARTESIAN_POINT ( 'NONE',  ( 1.500000000000000000, 0.0000000000000000000, 0.0000000000000000000 ) ) ;
#114 = PRODUCT ( 'Web Model 14743_14744', 'Web Model 14743_14744', '', ( #35 ) ) ;
#115 = CALENDAR_DATE ( 2020, 13, 4 ) ;
#116 = LINE ( 'NONE', #32, #76 ) ;
#117 = PERSON_AND_ORGANIZATION ( #78, #82 ) ;
#118 = CC_DESIGN_APPROVAL ( #44, ( #156 ) ) ;
#119 = PERSON_AND_ORGANIZATION_ROLE ( 'classification_officer' ) ;
#120 = AXIS2_PLACEMENT_3D ( 'NONE', #13, #123, #111 ) ;
#121 = APPROVAL_DATE_TIME ( #151, #124 ) ;
#122 = PERSON_AND_ORGANIZATION ( #78, #82 ) ;
#123 = DIRECTION ( 'NONE',  ( -1.000000000000000000, -0.0000000000000000000, -0.0000000000000000000 ) ) ;
#124 = APPROVAL ( #8, 'UNSPECIFIED' ) ;
#125 = LINE ( 'NONE', #21, #107 ) ;
#126 = APPLICATION_CONTEXT ( 'configuration controlled 3d designs of mechanical parts and assemblies' ) ;
#127 = AXIS2_PLACEMENT_3D ( 'NONE', #152, #92, #28 ) ;
#128 = DIRECTION ( 'NONE',  ( 1.000000000000000000, 0.0000000000000000000, 0.0000000000000000000 ) ) ;
#129 = DATE_TIME_ROLE ( 'creation_date' ) ;
#130 = LOCAL_TIME ( 9, 43, 19.00000000000000000, #51 ) ;
#131 = EDGE_LOOP ( 'NONE', ( #24, #154 ) ) ;
#132 = CC_DESIGN_PERSON_AND_ORGANIZATION_ASSIGNMENT ( #136, #174, ( #98 ) ) ;
#133 = DESIGN_CONTEXT ( 'detailed design', #149, 'design' ) ;
#134 = FACE_OUTER_BOUND ( 'NONE', #39, .T. ) ;
#135 = CARTESIAN_POINT ( 'NONE',  ( -1.500000000000000000, 1.555301434917138433E-15, -12.69999999999999929 ) ) ;
#136 = PERSON_AND_ORGANIZATION ( #78, #82 ) ;
#137 = DIRECTION ( 'NONE',  ( -1.000000000000000000, -0.0000000000000000000, -0.0000000000000000000 ) ) ;
#138 = APPROVAL_STATUS ( 'not_yet_approved' ) ;
#139 = CIRCLE ( 'NONE', #127, 12.69999999999999929 ) ;
#140 = PRODUCT_DEFINITION_SHAPE ( 'NONE', 'NONE',  #87 ) ;
#141 = APPROVAL_ROLE ( '' ) ;
#142 = VERTEX_POINT ( 'NONE', #96 ) ;
#143 = CC_DESIGN_APPROVAL ( #124, ( #87 ) ) ;
#144 = FACE_OUTER_BOUND ( 'NONE', #145, .T. ) ;
#145 = EDGE_LOOP ( 'NONE', ( #42, #65, #7, #79 ) ) ;
#146 = LOCAL_TIME ( 9, 43, 19.00000000000000000, #175 ) ;
#147 = APPROVAL_DATE_TIME ( #29, #106 ) ;
#148 = ORIENTED_EDGE ( 'NONE', *, *, #167, .F. ) ;
#149 = APPLICATION_CONTEXT ( 'configuration controlled 3d designs of mechanical parts and assemblies' ) ;
#150 = CC_DESIGN_APPROVAL ( #106, ( #98 ) ) ;
#151 = DATE_AND_TIME ( #40, #130 ) ;
#152 = CARTESIAN_POINT ( 'NONE',  ( -1.500000000000000000, 0.0000000000000000000, 0.0000000000000000000 ) ) ;
#153 = ADVANCED_FACE ( 'NONE', ( #27 ), #71, .T. ) ;
#154 = ORIENTED_EDGE ( 'NONE', *, *, #167, .T. ) ;
#155 = CYLINDRICAL_SURFACE ( 'NONE', #11, 12.69999999999999929 ) ;
#156 = SECURITY_CLASSIFICATION ( '', '', #54 ) ;
#157 = CARTESIAN_POINT ( 'NONE',  ( 1.500000000000000000, 0.0000000000000000000, 0.0000000000000000000 ) ) ;
#158 = CARTESIAN_POINT ( 'NONE',  ( -1.500000000000000000, 0.0000000000000000000, 0.0000000000000000000 ) ) ;
#159 = CARTESIAN_POINT ( 'NONE',  ( 1.500000000000000000, 0.0000000000000000000, 0.0000000000000000000 ) ) ;
#160 = VERTEX_POINT ( 'NONE', #67 ) ;
#161 = ORIENTED_EDGE ( 'NONE', *, *, #9, .T. ) ;
#162 = DATE_AND_TIME ( #43, #89 ) ;
#163 = AXIS2_PLACEMENT_3D ( 'NONE', #18, #70, #61 ) ;
#164 = VERTEX_POINT ( 'NONE', #135 ) ;
#165 = ORIENTED_EDGE ( 'NONE', *, *, #102, .F. ) ;
#166 = DIRECTION ( 'NONE',  ( 1.000000000000000000, 0.0000000000000000000, 0.0000000000000000000 ) ) ;
#167 = EDGE_CURVE ( 'NONE', #160, #19, #26, .T. ) ;
#168 = CLOSED_SHELL ( 'NONE', ( #153, #101, #72, #86 ) ) ;
#169 = CC_DESIGN_PERSON_AND_ORGANIZATION_ASSIGNMENT ( #59, #38, ( #98 ) ) ;
#170 = DATE_AND_TIME ( #115, #146 ) ;
#171 = APPROVAL_DATE_TIME ( #91, #44 ) ;
#172 = MANIFOLD_SOLID_BREP ( 'Boss-Extrude1', #168 ) ;
#173 = DATE_TIME_ROLE ( 'classification_date' ) ;
#174 = PERSON_AND_ORGANIZATION_ROLE ( 'design_supplier' ) ;
#175 = COORDINATED_UNIVERSAL_TIME_OFFSET ( 5, 0, .BEHIND. ) ;
ENDSEC;
END-ISO-10303-21;
