ISO-10303-21;
HEADER;
FILE_DESCRIPTION (( 'STEP AP203' ),
    '1' );
FILE_NAME ('TTN099138-E0W.STEP',
    '2019-12-09T20:55:36',
    ( '' ),
    ( '' ),
    'SwSTEP 2.0',
    'SolidWorks 2018',
    '' );
FILE_SCHEMA (( 'CONFIG_CONTROL_DESIGN' ));
ENDSEC;

DATA;
#1 = ORIENTED_EDGE ( 'NONE', *, *, #128, .T. ) ;
#2 = DIRECTION ( 'NONE',  ( -0.0000000000000000000, 3.061515884556003789E-16, -1.000000000000000000 ) ) ;
#3 = CONICAL_SURFACE ( 'NONE', #237, 12.69999999999999929, 0.8764427041146293229 ) ;
#4 = CARTESIAN_POINT ( 'NONE',  ( 0.0000000000000000000, -7.223558250006031137E-16, 1.379735549706899711 ) ) ;
#5 = DIRECTION ( 'NONE',  ( 8.659560562355006814E-17, 0.7071067811865532349, 0.7071067811865416886 ) ) ;
#6 = ORIENTED_EDGE ( 'NONE', *, *, #117, .T. ) ;
#7 = DIRECTION ( 'NONE',  ( 0.0000000000000000000, 1.000000000000000000, 3.957562861367532226E-16 ) ) ;
#8 = CC_DESIGN_PERSON_AND_ORGANIZATION_ASSIGNMENT ( #47, #246, ( #115 ) ) ;
#9 = CALENDAR_DATE ( 2019, 9, 12 ) ;
#10 = ORIENTED_EDGE ( 'NONE', *, *, #247, .T. ) ;
#11 = DIRECTION ( 'NONE',  ( 0.0000000000000000000, 1.000000000000000000, 3.073328992872296367E-16 ) ) ;
#12 =( LENGTH_UNIT ( ) NAMED_UNIT ( * ) SI_UNIT ( .MILLI., .METRE. ) );
#13 = APPROVAL_STATUS ( 'not_yet_approved' ) ;
#14 = ORIENTED_EDGE ( 'NONE', *, *, #94, .T. ) ;
#15 = VECTOR ( 'NONE', #240, 1000.000000000000000 ) ;
#16 = DATE_AND_TIME ( #279, #270 ) ;
#17 = COORDINATED_UNIVERSAL_TIME_OFFSET ( 5, 0, .BEHIND. ) ;
#18 = AXIS2_PLACEMENT_3D ( 'NONE', #121, #191, #52 ) ;
#19 = ORGANIZATION ( 'UNSPECIFIED', 'UNSPECIFIED', '' ) ;
#20 = VERTEX_POINT ( 'NONE', #285 ) ;
#21 = LINE ( 'NONE', #284, #135 ) ;
#22 = DIRECTION ( 'NONE',  ( 0.0000000000000000000, 1.000000000000000000, 3.122502256758250798E-16 ) ) ;
#23 = CARTESIAN_POINT ( 'NONE',  ( 0.0000000000000000000, 12.69999999999999929, -1.379735549706911923 ) ) ;
#24 = DIRECTION ( 'NONE',  ( 0.0000000000000000000, 0.7684674719394348763, -0.6398888532948624475 ) ) ;
#25 = DIRECTION ( 'NONE',  ( 0.0000000000000000000, -1.000000000000000000, -3.122502256758250798E-16 ) ) ;
#26 = DIRECTION ( 'NONE',  ( 1.000000000000000000, 0.0000000000000000000, -0.0000000000000000000 ) ) ;
#27 = CONICAL_SURFACE ( 'NONE', #227, 12.50000000000000711, 0.7853981633974567167 ) ;
#28 = CARTESIAN_POINT ( 'NONE',  ( 0.0000000000000000000, 1.836909530733571311E-16, -1.579735549706904330 ) ) ;
#29 = AXIS2_PLACEMENT_3D ( 'NONE', #147, #102, #74 ) ;
#30 = DIRECTION ( 'NONE',  ( 0.0000000000000000000, -1.000000000000000000, -3.073328992872296367E-16 ) ) ;
#31 = DIRECTION ( 'NONE',  ( 0.0000000000000000000, 1.000000000000000000, 3.073328992872296367E-16 ) ) ;
#32 = EDGE_CURVE ( 'NONE', #248, #20, #150, .T. ) ;
#33 = DIRECTION ( 'NONE',  ( 1.000000000000000000, 0.0000000000000000000, 0.0000000000000000000 ) ) ;
#34 = EDGE_LOOP ( 'NONE', ( #104, #228, #98 ) ) ;
#35 = DIRECTION ( 'NONE',  ( 0.0000000000000000000, 1.000000000000000000, 3.073328992872296367E-16 ) ) ;
#36 = PERSON_AND_ORGANIZATION_ROLE ( 'classification_officer' ) ;
#37 = APPLICATION_CONTEXT ( 'configuration controlled 3d designs of mechanical parts and assemblies' ) ;
#38 = CC_DESIGN_APPROVAL ( #140, ( #115 ) ) ;
#39 = APPROVAL_ROLE ( '' ) ;
#40 = EDGE_LOOP ( 'NONE', ( #48, #274, #10, #173 ) ) ;
#41 = CIRCLE ( 'NONE', #157, 12.69999999999999929 ) ;
#42 = CC_DESIGN_DATE_AND_TIME_ASSIGNMENT ( #71, #267, ( #115 ) ) ;
#43 = ORIENTED_EDGE ( 'NONE', *, *, #275, .T. ) ;
#44 = CIRCLE ( 'NONE', #281, 12.69999999999999929 ) ;
#45 = AXIS2_PLACEMENT_3D ( 'NONE', #291, #76, #196 ) ;
#46 = DIRECTION ( 'NONE',  ( 0.0000000000000000000, -1.000000000000000000, -3.121747882633493684E-16 ) ) ;
#47 = PERSON_AND_ORGANIZATION ( #208, #19 ) ;
#48 = ORIENTED_EDGE ( 'NONE', *, *, #158, .F. ) ;
#49 = PERSON_AND_ORGANIZATION ( #208, #19 ) ;
#50 = PLANE ( 'NONE',  #251 ) ;
#51 = ADVANCED_FACE ( 'NONE', ( #108 ), #96, .T. ) ;
#52 = DIRECTION ( 'NONE',  ( 0.0000000000000000000, -1.000000000000000000, -3.122502256758250798E-16 ) ) ;
#53 = APPROVAL_DATE_TIME ( #112, #140 ) ;
#54 = ORIENTED_EDGE ( 'NONE', *, *, #297, .T. ) ;
#55 = AXIS2_PLACEMENT_3D ( 'NONE', #265, #26, #81 ) ;
#56 = CALENDAR_DATE ( 2019, 9, 12 ) ;
#57 = DIRECTION ( 'NONE',  ( -0.0000000000000000000, 3.061515884556003789E-16, -1.000000000000000000 ) ) ;
#58 = CARTESIAN_POINT ( 'NONE',  ( 0.0000000000000000000, -12.50000000000000711, -1.579735549706908326 ) ) ;
#59 = VERTEX_POINT ( 'NONE', #301 ) ;
#60 = VERTEX_POINT ( 'NONE', #230 ) ;
#61 = CC_DESIGN_SECURITY_CLASSIFICATION ( #183, ( #130 ) ) ;
#62 = CC_DESIGN_PERSON_AND_ORGANIZATION_ASSIGNMENT ( #93, #36, ( #183 ) ) ;
#63 = VERTEX_POINT ( 'NONE', #23 ) ;
#64 = EDGE_CURVE ( 'NONE', #276, #175, #212, .T. ) ;
#65 = FACE_OUTER_BOUND ( 'NONE', #194, .T. ) ;
#66 = CC_DESIGN_PERSON_AND_ORGANIZATION_ASSIGNMENT ( #234, #224, ( #130 ) ) ;
#67 = DIRECTION ( 'NONE',  ( 0.0000000000000000000, 1.000000000000000000, 3.073328992872296367E-16 ) ) ;
#68 = ORIENTED_EDGE ( 'NONE', *, *, #258, .F. ) ;
#69 = LINE ( 'NONE', #235, #249 ) ;
#70 = DIRECTION ( 'NONE',  ( 0.0000000000000000000, -1.000000000000000000, -3.073328992872296367E-16 ) ) ;
#71 = DATE_AND_TIME ( #86, #103 ) ;
#72 = CONICAL_SURFACE ( 'NONE', #263, 12.69999999999999929, 0.8764427041146293229 ) ;
#73 = DIRECTION ( 'NONE',  ( 0.0000000000000000000, 1.000000000000000000, 3.061515884555943146E-16 ) ) ;
#74 = DIRECTION ( 'NONE',  ( 0.0000000000000000000, -1.000000000000000000, -3.121747882633493684E-16 ) ) ;
#75 = ADVANCED_FACE ( 'NONE', ( #143 ), #72, .T. ) ;
#76 = DIRECTION ( 'NONE',  ( -0.0000000000000000000, 3.061515884555943146E-16, -1.000000000000000000 ) ) ;
#77 = PERSON_AND_ORGANIZATION ( #208, #19 ) ;
#78 = VERTEX_POINT ( 'NONE', #187 ) ;
#79 = LINE ( 'NONE', #58, #178 ) ;
#80 = CARTESIAN_POINT ( 'NONE',  ( 0.0000000000000000000, 1.836909530733565148E-16, -1.579735549706902553 ) ) ;
#81 = DIRECTION ( 'NONE',  ( 0.0000000000000000000, 1.000000000000000000, 3.957562861367532226E-16 ) ) ;
#82 = EDGE_CURVE ( 'NONE', #248, #59, #21, .T. ) ;
#83 = COORDINATED_UNIVERSAL_TIME_OFFSET ( 5, 0, .BEHIND. ) ;
#84 = ADVANCED_FACE ( 'NONE', ( #168 ), #50, .T. ) ;
#85 = DESIGN_CONTEXT ( 'detailed design', #37, 'design' ) ;
#86 = CALENDAR_DATE ( 2019, 9, 12 ) ;
#87 =( NAMED_UNIT ( * ) PLANE_ANGLE_UNIT ( ) SI_UNIT ( $, .RADIAN. ) );
#88 = FACE_OUTER_BOUND ( 'NONE', #116, .T. ) ;
#89 =( NAMED_UNIT ( * ) SI_UNIT ( $, .STERADIAN. ) SOLID_ANGLE_UNIT ( ) );
#90 = APPLICATION_CONTEXT ( 'configuration controlled 3d designs of mechanical parts and assemblies' ) ;
#91 = CIRCLE ( 'NONE', #179, 70.13299999999999557 ) ;
#92 = SPHERICAL_SURFACE ( 'NONE', #55, 70.13299999999999557 ) ;
#93 = PERSON_AND_ORGANIZATION ( #208, #19 ) ;
#94 = EDGE_CURVE ( 'NONE', #78, #59, #132, .T. ) ;
#95 = LOCAL_TIME ( 15, 55, 36.00000000000000000, #146 ) ;
#96 = CYLINDRICAL_SURFACE ( 'NONE', #204, 12.69999999999999929 ) ;
#97 = ORIENTED_EDGE ( 'NONE', *, *, #122, .T. ) ;
#98 = ORIENTED_EDGE ( 'NONE', *, *, #106, .F. ) ;
#99 = FACE_OUTER_BOUND ( 'NONE', #34, .T. ) ;
#100 = DIRECTION ( 'NONE',  ( -0.0000000000000000000, 3.061515884555943146E-16, -1.000000000000000000 ) ) ;
#101 = DIRECTION ( 'NONE',  ( -0.0000000000000000000, 3.061515884555943146E-16, -1.000000000000000000 ) ) ;
#102 = DIRECTION ( 'NONE',  ( 0.0000000000000000000, -3.061515884556003789E-16, 1.000000000000000000 ) ) ;
#103 = LOCAL_TIME ( 15, 55, 36.00000000000000000, #226 ) ;
#104 = ORIENTED_EDGE ( 'NONE', *, *, #32, .T. ) ;
#105 = DIRECTION ( 'NONE',  ( 0.0000000000000000000, -3.061515884555943146E-16, 1.000000000000000000 ) ) ;
#106 = EDGE_CURVE ( 'NONE', #248, #186, #269, .T. ) ;
#107 = DATE_TIME_ROLE ( 'classification_date' ) ;
#108 = FACE_OUTER_BOUND ( 'NONE', #231, .T. ) ;
#109 = CARTESIAN_POINT ( 'NONE',  ( 0.0000000000000000000, 1.224606353822417687E-16, -1.379735549706915920 ) ) ;
#110 = EDGE_LOOP ( 'NONE', ( #120, #97, #43, #144 ) ) ;
#111 = VECTOR ( 'NONE', #5, 1000.000000000000114 ) ;
#112 = DATE_AND_TIME ( #293, #213 ) ;
#113 = ORIENTED_EDGE ( 'NONE', *, *, #158, .T. ) ;
#114 = SPHERICAL_SURFACE ( 'NONE', #167, 70.13299999999999557 ) ;
#115 = PRODUCT_DEFINITION ( 'UNKNOWN', '', #130, #85 ) ;
#116 = EDGE_LOOP ( 'NONE', ( #298, #1, #206 ) ) ;
#117 = EDGE_CURVE ( 'NONE', #175, #276, #207, .T. ) ;
#118 = ADVANCED_BREP_SHAPE_REPRESENTATION ( 'TTN099138-E0W', ( #283, #136 ), #254 ) ;
#119 = CARTESIAN_POINT ( 'NONE',  ( 1.555301434917138433E-15, -12.69999999999999929, -1.579735549706906328 ) ) ;
#120 = ORIENTED_EDGE ( 'NONE', *, *, #180, .T. ) ;
#121 = CARTESIAN_POINT ( 'NONE',  ( 0.0000000000000000000, 1.836909530733571311E-16, -1.579735549706904330 ) ) ;
#122 = EDGE_CURVE ( 'NONE', #78, #60, #253, .T. ) ;
#123 = UNCERTAINTY_MEASURE_WITH_UNIT (LENGTH_MEASURE( 1.000000000000000082E-05 ), #12, 'distance_accuracy_value', 'NONE');
#124 = APPROVAL_STATUS ( 'not_yet_approved' ) ;
#125 = ORIENTED_EDGE ( 'NONE', *, *, #275, .F. ) ;
#126 = APPROVAL_ROLE ( '' ) ;
#127 = APPROVAL_DATE_TIME ( #133, #198 ) ;
#128 = EDGE_CURVE ( 'NONE', #20, #248, #256, .T. ) ;
#129 = ORIENTED_EDGE ( 'NONE', *, *, #117, .F. ) ;
#130 = PRODUCT_DEFINITION_FORMATION_WITH_SPECIFIED_SOURCE ( 'ANY', '', #250, .NOT_KNOWN. ) ;
#131 = PERSON_AND_ORGANIZATION ( #208, #19 ) ;
#132 = CIRCLE ( 'NONE', #232, 12.69999999999999929 ) ;
#133 = DATE_AND_TIME ( #56, #95 ) ;
#134 = ORIENTED_EDGE ( 'NONE', *, *, #180, .F. ) ;
#135 = VECTOR ( 'NONE', #24, 999.9999999999998863 ) ;
#136 = AXIS2_PLACEMENT_3D ( 'NONE', #202, #271, #33 ) ;
#137 = DIRECTION ( 'NONE',  ( -0.0000000000000000000, 3.061515884555943146E-16, -1.000000000000000000 ) ) ;
#138 = ORIENTED_EDGE ( 'NONE', *, *, #64, .T. ) ;
#139 = DIRECTION ( 'NONE',  ( 0.0000000000000000000, 1.000000000000000000, 3.073328992872296367E-16 ) ) ;
#140 = APPROVAL ( #13, 'UNSPECIFIED' ) ;
#141 = ADVANCED_FACE ( 'NONE', ( #88 ), #92, .F. ) ;
#142 = CARTESIAN_POINT ( 'NONE',  ( 1.543054966925665273E-15, 12.50000000000000711, -1.579735549706900555 ) ) ;
#143 = FACE_OUTER_BOUND ( 'NONE', #159, .T. ) ;
#144 = ORIENTED_EDGE ( 'NONE', *, *, #299, .F. ) ;
#145 = CARTESIAN_POINT ( 'NONE',  ( 0.0000000000000000000, -8.833453012026954672E-15, 70.55326445029309923 ) ) ;
#146 = COORDINATED_UNIVERSAL_TIME_OFFSET ( 5, 0, .BEHIND. ) ;
#147 = CARTESIAN_POINT ( 'NONE',  ( 0.0000000000000000000, 1.229391741299885519E-14, 1.543756671469984409 ) ) ;
#148 = CARTESIAN_POINT ( 'NONE',  ( 0.0000000000000000000, -8.833453012026954672E-15, 70.55326445029309923 ) ) ;
#149 = AXIS2_PLACEMENT_3D ( 'NONE', #80, #100, #139 ) ;
#150 = CIRCLE ( 'NONE', #205, 12.50302064001130375 ) ;
#151 = SECURITY_CLASSIFICATION_LEVEL ( 'unclassified' ) ;
#152 = DIRECTION ( 'NONE',  ( 0.0000000000000000000, -3.061515884555943146E-16, 1.000000000000000000 ) ) ;
#153 = APPLICATION_PROTOCOL_DEFINITION ( 'international standard', 'config_control_design', 1994, #37 ) ;
#154 = CLOSED_SHELL ( 'NONE', ( #75, #223, #219, #266, #84, #51, #141, #174, #195 ) ) ;
#155 = ORIENTED_EDGE ( 'NONE', *, *, #258, .T. ) ;
#156 = CYLINDRICAL_SURFACE ( 'NONE', #149, 12.69999999999999929 ) ;
#157 = AXIS2_PLACEMENT_3D ( 'NONE', #4, #238, #30 ) ;
#158 = EDGE_CURVE ( 'NONE', #175, #63, #210, .T. ) ;
#159 = EDGE_LOOP ( 'NONE', ( #255, #155, #134, #218 ) ) ;
#160 = VECTOR ( 'NONE', #101, 1000.000000000000000 ) ;
#161 = APPROVAL ( #242, 'UNSPECIFIED' ) ;
#162 = SHAPE_DEFINITION_REPRESENTATION ( #288, #118 ) ;
#163 = DIRECTION ( 'NONE',  ( 0.0000000000000000000, 1.000000000000000000, 3.073328992872296367E-16 ) ) ;
#164 = CARTESIAN_POINT ( 'NONE',  ( 0.0000000000000000000, 1.836909530733571064E-16, -1.579735549706904330 ) ) ;
#165 = ORIENTED_EDGE ( 'NONE', *, *, #247, .F. ) ;
#166 = CC_DESIGN_PERSON_AND_ORGANIZATION_ASSIGNMENT ( #49, #241, ( #130 ) ) ;
#167 = AXIS2_PLACEMENT_3D ( 'NONE', #220, #295, #7 ) ;
#168 = FACE_OUTER_BOUND ( 'NONE', #272, .T. ) ;
#169 = EDGE_CURVE ( 'NONE', #20, #186, #91, .T. ) ;
#170 = DIRECTION ( 'NONE',  ( 0.0000000000000000000, -3.061515884555943146E-16, 1.000000000000000000 ) ) ;
#171 = APPROVAL_DATE_TIME ( #252, #161 ) ;
#172 = CARTESIAN_POINT ( 'NONE',  ( 1.530808498934192113E-15, 12.50000000000000711, -1.579735549706900555 ) ) ;
#173 = ORIENTED_EDGE ( 'NONE', *, *, #297, .F. ) ;
#174 = ADVANCED_FACE ( 'NONE', ( #190 ), #27, .T. ) ;
#175 = VERTEX_POINT ( 'NONE', #142 ) ;
#176 = PERSON_AND_ORGANIZATION_ROLE ( 'design_owner' ) ;
#177 = ORIENTED_EDGE ( 'NONE', *, *, #32, .F. ) ;
#178 = VECTOR ( 'NONE', #216, 1000.000000000000114 ) ;
#179 = AXIS2_PLACEMENT_3D ( 'NONE', #148, #192, #292 ) ;
#180 = EDGE_CURVE ( 'NONE', #59, #78, #41, .T. ) ;
#181 = LINE ( 'NONE', #199, #15 ) ;
#182 = CC_DESIGN_PERSON_AND_ORGANIZATION_ASSIGNMENT ( #264, #176, ( #250 ) ) ;
#183 = SECURITY_CLASSIFICATION ( '', '', #151 ) ;
#184 = FACE_OUTER_BOUND ( 'NONE', #225, .T. ) ;
#185 = AXIS2_PLACEMENT_3D ( 'NONE', #164, #280, #22 ) ;
#186 = VERTEX_POINT ( 'NONE', #262 ) ;
#187 = CARTESIAN_POINT ( 'NONE',  ( 1.555301434917138433E-15, -12.69999999999999929, 1.379735549706895936 ) ) ;
#188 = CARTESIAN_POINT ( 'NONE',  ( 0.0000000000000000000, 1.836909530733565148E-16, -1.579735549706902553 ) ) ;
#189 = CARTESIAN_POINT ( 'NONE',  ( 0.0000000000000000000, 1.229391741299885519E-14, 1.543756671469984409 ) ) ;
#190 = FACE_OUTER_BOUND ( 'NONE', #40, .T. ) ;
#191 = DIRECTION ( 'NONE',  ( 0.0000000000000000000, -3.061515884555943146E-16, 1.000000000000000000 ) ) ;
#192 = DIRECTION ( 'NONE',  ( 1.000000000000000000, 1.224646799147353207E-16, 3.749275628560213616E-32 ) ) ;
#193 = CARTESIAN_POINT ( 'NONE',  ( 0.0000000000000000000, -7.223558250006021276E-16, 1.379735549706898379 ) ) ;
#194 = EDGE_LOOP ( 'NONE', ( #68, #177, #277, #239 ) ) ;
#195 = ADVANCED_FACE ( 'NONE', ( #65 ), #3, .T. ) ;
#196 = DIRECTION ( 'NONE',  ( 0.0000000000000000000, 1.000000000000000000, 3.122502256758250798E-16 ) ) ;
#197 = CARTESIAN_POINT ( 'NONE',  ( 0.0000000000000000000, 1.224606353822417687E-16, -1.379735549706915920 ) ) ;
#198 = APPROVAL ( #124, 'UNSPECIFIED' ) ;
#199 = CARTESIAN_POINT ( 'NONE',  ( 0.0000000000000000000, 12.69999999999999929, -1.579735549706898556 ) ) ;
#200 = APPROVAL_PERSON_ORGANIZATION ( #131, #161, #39 ) ;
#201 = CC_DESIGN_DATE_AND_TIME_ASSIGNMENT ( #16, #107, ( #183 ) ) ;
#202 = CARTESIAN_POINT ( 'NONE',  ( 0.0000000000000000000, 0.0000000000000000000, 0.0000000000000000000 ) ) ;
#203 = APPROVAL_ROLE ( '' ) ;
#204 = AXIS2_PLACEMENT_3D ( 'NONE', #188, #137, #67 ) ;
#205 = AXIS2_PLACEMENT_3D ( 'NONE', #189, #282, #46 ) ;
#206 = ORIENTED_EDGE ( 'NONE', *, *, #106, .T. ) ;
#207 = CIRCLE ( 'NONE', #45, 12.50000000000000711 ) ;
#208 = PERSON ( 'UNSPECIFIED', 'UNSPECIFIED', 'UNSPECIFIED', ('UNSPECIFIED'), ('UNSPECIFIED'), ('UNSPECIFIED') ) ;
#209 = CC_DESIGN_APPROVAL ( #198, ( #183 ) ) ;
#210 = LINE ( 'NONE', #172, #111 ) ;
#211 = CARTESIAN_POINT ( 'NONE',  ( 0.0000000000000000000, -7.223558250006021276E-16, 1.379735549706898379 ) ) ;
#212 = CIRCLE ( 'NONE', #185, 12.50000000000000711 ) ;
#213 = LOCAL_TIME ( 15, 55, 36.00000000000000000, #287 ) ;
#214 = DIRECTION ( 'NONE',  ( -0.0000000000000000000, 3.061515884556003789E-16, -1.000000000000000000 ) ) ;
#215 = AXIS2_PLACEMENT_3D ( 'NONE', #145, #236, #289 ) ;
#216 = DIRECTION ( 'NONE',  ( 0.0000000000000000000, -0.7071067811865536790, 0.7071067811865413555 ) ) ;
#217 = CARTESIAN_POINT ( 'NONE',  ( 0.0000000000000000000, 12.50302064001140145, 1.543756671469993291 ) ) ;
#218 = ORIENTED_EDGE ( 'NONE', *, *, #82, .F. ) ;
#219 = ADVANCED_FACE ( 'NONE', ( #99 ), #114, .F. ) ;
#220 = CARTESIAN_POINT ( 'NONE',  ( 0.0000000000000000000, -8.833453012026954672E-15, 70.55326445029309923 ) ) ;
#221 = AXIS2_PLACEMENT_3D ( 'NONE', #197, #152, #11 ) ;
#222 = APPROVAL_PERSON_ORGANIZATION ( #77, #140, #126 ) ;
#223 = ADVANCED_FACE ( 'NONE', ( #184 ), #278, .T. ) ;
#224 = PERSON_AND_ORGANIZATION_ROLE ( 'creator' ) ;
#225 = EDGE_LOOP ( 'NONE', ( #129, #113, #125, #165 ) ) ;
#226 = COORDINATED_UNIVERSAL_TIME_OFFSET ( 5, 0, .BEHIND. ) ;
#227 = AXIS2_PLACEMENT_3D ( 'NONE', #28, #170, #25 ) ;
#228 = ORIENTED_EDGE ( 'NONE', *, *, #169, .T. ) ;
#229 = FACE_OUTER_BOUND ( 'NONE', #110, .T. ) ;
#230 = CARTESIAN_POINT ( 'NONE',  ( 1.555301434917138433E-15, -12.69999999999999929, -1.379735549706919695 ) ) ;
#231 = EDGE_LOOP ( 'NONE', ( #268, #14, #294, #54 ) ) ;
#232 = AXIS2_PLACEMENT_3D ( 'NONE', #259, #214, #70 ) ;
#233 = APPROVAL_PERSON_ORGANIZATION ( #290, #198, #203 ) ;
#234 = PERSON_AND_ORGANIZATION ( #208, #19 ) ;
#235 = CARTESIAN_POINT ( 'NONE',  ( 1.555301434917138038E-15, -12.69999999999999929, 1.379735549706894604 ) ) ;
#236 = DIRECTION ( 'NONE',  ( -1.000000000000000000, 0.0000000000000000000, 0.0000000000000000000 ) ) ;
#237 = AXIS2_PLACEMENT_3D ( 'NONE', #193, #57, #31 ) ;
#238 = DIRECTION ( 'NONE',  ( -0.0000000000000000000, 3.061515884556003789E-16, -1.000000000000000000 ) ) ;
#239 = ORIENTED_EDGE ( 'NONE', *, *, #94, .F. ) ;
#240 = DIRECTION ( 'NONE',  ( -0.0000000000000000000, 3.061515884555943146E-16, -1.000000000000000000 ) ) ;
#241 = PERSON_AND_ORGANIZATION_ROLE ( 'design_supplier' ) ;
#242 = APPROVAL_STATUS ( 'not_yet_approved' ) ;
#243 = CIRCLE ( 'NONE', #221, 12.69999999999999929 ) ;
#244 = PRODUCT_RELATED_PRODUCT_CATEGORY ( 'detail', '', ( #250 ) ) ;
#245 = APPLICATION_PROTOCOL_DEFINITION ( 'international standard', 'config_control_design', 1994, #90 ) ;
#246 = PERSON_AND_ORGANIZATION_ROLE ( 'creator' ) ;
#247 = EDGE_CURVE ( 'NONE', #276, #60, #79, .T. ) ;
#248 = VERTEX_POINT ( 'NONE', #217 ) ;
#249 = VECTOR ( 'NONE', #286, 1000.000000000000114 ) ;
#250 = PRODUCT ( 'TTN099138-E0W', 'TTN099138-E0W', '', ( #296 ) ) ;
#251 = AXIS2_PLACEMENT_3D ( 'NONE', #261, #257, #73 ) ;
#252 = DATE_AND_TIME ( #9, #260 ) ;
#253 = LINE ( 'NONE', #119, #160 ) ;
#254 =( GEOMETRIC_REPRESENTATION_CONTEXT ( 3 ) GLOBAL_UNCERTAINTY_ASSIGNED_CONTEXT ( ( #123 ) ) GLOBAL_UNIT_ASSIGNED_CONTEXT ( ( #12, #87, #89 ) ) REPRESENTATION_CONTEXT ( 'NONE', 'WORKASPACE' ) );
#255 = ORIENTED_EDGE ( 'NONE', *, *, #128, .F. ) ;
#256 = CIRCLE ( 'NONE', #29, 12.50302064001130375 ) ;
#257 = DIRECTION ( 'NONE',  ( -0.0000000000000000000, 3.061515884555943146E-16, -1.000000000000000000 ) ) ;
#258 = EDGE_CURVE ( 'NONE', #20, #78, #69, .T. ) ;
#259 = CARTESIAN_POINT ( 'NONE',  ( 0.0000000000000000000, -7.223558250006031137E-16, 1.379735549706899711 ) ) ;
#260 = LOCAL_TIME ( 15, 55, 36.00000000000000000, #17 ) ;
#261 = CARTESIAN_POINT ( 'NONE',  ( 0.0000000000000000000, 1.836909530733571311E-16, -1.579735549706904330 ) ) ;
#262 = CARTESIAN_POINT ( 'NONE',  ( 0.0000000000000000000, 1.693228403935930843E-14, 0.4202644502930980019 ) ) ;
#263 = AXIS2_PLACEMENT_3D ( 'NONE', #211, #2, #163 ) ;
#264 = PERSON_AND_ORGANIZATION ( #208, #19 ) ;
#265 = CARTESIAN_POINT ( 'NONE',  ( 0.0000000000000000000, -8.833453012026954672E-15, 70.55326445029309923 ) ) ;
#266 = ADVANCED_FACE ( 'NONE', ( #229 ), #156, .T. ) ;
#267 = DATE_TIME_ROLE ( 'creation_date' ) ;
#268 = ORIENTED_EDGE ( 'NONE', *, *, #122, .F. ) ;
#269 = CIRCLE ( 'NONE', #215, 70.13299999999998136 ) ;
#270 = LOCAL_TIME ( 15, 55, 36.00000000000000000, #83 ) ;
#271 = DIRECTION ( 'NONE',  ( 0.0000000000000000000, 0.0000000000000000000, 1.000000000000000000 ) ) ;
#272 = EDGE_LOOP ( 'NONE', ( #138, #6 ) ) ;
#273 = CARTESIAN_POINT ( 'NONE',  ( 0.0000000000000000000, -12.50000000000000711, -1.579735549706908326 ) ) ;
#274 = ORIENTED_EDGE ( 'NONE', *, *, #64, .F. ) ;
#275 = EDGE_CURVE ( 'NONE', #60, #63, #243, .T. ) ;
#276 = VERTEX_POINT ( 'NONE', #273 ) ;
#277 = ORIENTED_EDGE ( 'NONE', *, *, #82, .T. ) ;
#278 = CONICAL_SURFACE ( 'NONE', #18, 12.50000000000000711, 0.7853981633974567167 ) ;
#279 = CALENDAR_DATE ( 2019, 9, 12 ) ;
#280 = DIRECTION ( 'NONE',  ( -0.0000000000000000000, 3.061515884555943146E-16, -1.000000000000000000 ) ) ;
#281 = AXIS2_PLACEMENT_3D ( 'NONE', #109, #105, #35 ) ;
#282 = DIRECTION ( 'NONE',  ( 0.0000000000000000000, -3.061515884556003789E-16, 1.000000000000000000 ) ) ;
#283 = MANIFOLD_SOLID_BREP ( 'TTN099140-1-solid1', #154 ) ;
#284 = CARTESIAN_POINT ( 'NONE',  ( 0.0000000000000000000, 12.69999999999999929, 1.379735549706902376 ) ) ;
#285 = CARTESIAN_POINT ( 'NONE',  ( 1.531178420646323849E-15, -12.50302064001137659, 1.543756671469989294 ) ) ;
#286 = DIRECTION ( 'NONE',  ( 9.411012297594869336E-17, -0.7684674719394344322, -0.6398888532948628916 ) ) ;
#287 = COORDINATED_UNIVERSAL_TIME_OFFSET ( 5, 0, .BEHIND. ) ;
#288 = PRODUCT_DEFINITION_SHAPE ( 'NONE', 'NONE',  #115 ) ;
#289 = DIRECTION ( 'NONE',  ( 0.0000000000000000000, 0.0000000000000000000, 1.000000000000000000 ) ) ;
#290 = PERSON_AND_ORGANIZATION ( #208, #19 ) ;
#291 = CARTESIAN_POINT ( 'NONE',  ( 0.0000000000000000000, 1.836909530733571064E-16, -1.579735549706904330 ) ) ;
#292 = DIRECTION ( 'NONE',  ( -1.224646799147353207E-16, 1.000000000000000000, 0.0000000000000000000 ) ) ;
#293 = CALENDAR_DATE ( 2019, 9, 12 ) ;
#294 = ORIENTED_EDGE ( 'NONE', *, *, #299, .T. ) ;
#295 = DIRECTION ( 'NONE',  ( 1.000000000000000000, 0.0000000000000000000, -0.0000000000000000000 ) ) ;
#296 = MECHANICAL_CONTEXT ( 'NONE', #90, 'mechanical' ) ;
#297 = EDGE_CURVE ( 'NONE', #63, #60, #44, .T. ) ;
#298 = ORIENTED_EDGE ( 'NONE', *, *, #169, .F. ) ;
#299 = EDGE_CURVE ( 'NONE', #59, #63, #181, .T. ) ;
#300 = CC_DESIGN_APPROVAL ( #161, ( #130 ) ) ;
#301 = CARTESIAN_POINT ( 'NONE',  ( 0.0000000000000000000, 12.69999999999999929, 1.379735549706903708 ) ) ;
ENDSEC;
END-ISO-10303-21;
