ISO-10303-21;
HEADER;
FILE_DESCRIPTION (( 'STEP AP203' ),
    '1' );
FILE_NAME ('Web Model 34467_34467.step',
    '2017-06-14T17:56:29',
    ( '' ),
    ( '' ),
    'SwSTEP 2.0',
    'SolidWorks 2016',
    '' );
FILE_SCHEMA (( 'CONFIG_CONTROL_DESIGN' ));
ENDSEC;

DATA;
#1 = CIRCLE ( 'NONE', #156, 2.499999999999999600 ) ;
#2 = ORIENTED_EDGE ( 'NONE', *, *, #78, .T. ) ;
#3 = CARTESIAN_POINT ( 'NONE',  ( 0.0000000000000000000, 0.0000000000000000000, 0.6250000000000000000 ) ) ;
#4 = PERSON_AND_ORGANIZATION_ROLE ( 'design_owner' ) ;
#5 = CARTESIAN_POINT ( 'NONE',  ( -2.499999999999999600, 0.0000000000000000000, 0.6250000000000000000 ) ) ;
#6 = APPROVAL_PERSON_ORGANIZATION ( #40, #11, #32 ) ;
#7 = DIRECTION ( 'NONE',  ( -1.000000000000000000, 0.0000000000000000000, 0.0000000000000000000 ) ) ;
#8 = PERSON_AND_ORGANIZATION_ROLE ( 'classification_officer' ) ;
#9 = APPROVAL ( #71, 'UNSPECIFIED' ) ;
#10 = COORDINATED_UNIVERSAL_TIME_OFFSET ( 5, 0, .BEHIND. ) ;
#11 = APPROVAL ( #44, 'UNSPECIFIED' ) ;
#12 = DIRECTION ( 'NONE',  ( 1.000000000000000000, 0.0000000000000000000, 0.0000000000000000000 ) ) ;
#13 = AXIS2_PLACEMENT_3D ( 'NONE', #42, #123, #109 ) ;
#14 = DATE_AND_TIME ( #83, #103 ) ;
#15 = PERSON ( 'UNSPECIFIED', 'UNSPECIFIED', 'UNSPECIFIED', ('UNSPECIFIED'), ('UNSPECIFIED'), ('UNSPECIFIED') ) ;
#16 = PLANE ( 'NONE',  #55 ) ;
#17 = EDGE_CURVE ( 'NONE', #20, #64, #88, .T. ) ;
#18 = PERSON_AND_ORGANIZATION_ROLE ( 'design_supplier' ) ;
#19 = CC_DESIGN_PERSON_AND_ORGANIZATION_ASSIGNMENT ( #62, #8, ( #81 ) ) ;
#20 = VERTEX_POINT ( 'NONE', #85 ) ;
#21 = EDGE_LOOP ( 'NONE', ( #165, #94, #2, #142 ) ) ;
#22 = COORDINATED_UNIVERSAL_TIME_OFFSET ( 5, 0, .BEHIND. ) ;
#23 = EDGE_LOOP ( 'NONE', ( #80, #115, #170, #173 ) ) ;
#24 = PRODUCT_DEFINITION_FORMATION_WITH_SPECIFIED_SOURCE ( 'ANY', '', #107, .NOT_KNOWN. ) ;
#25 = CALENDAR_DATE ( 2017, 14, 6 ) ;
#26 = ADVANCED_FACE ( 'NONE', ( #121 ), #45, .T. ) ;
#27 = DIRECTION ( 'NONE',  ( 1.000000000000000000, 0.0000000000000000000, 0.0000000000000000000 ) ) ;
#28 = DIRECTION ( 'NONE',  ( 1.000000000000000000, 0.0000000000000000000, -0.0000000000000000000 ) ) ;
#29 = APPLICATION_CONTEXT ( 'configuration controlled 3d designs of mechanical parts and assemblies' ) ;
#30 = EDGE_CURVE ( 'NONE', #58, #68, #1, .T. ) ;
#31 = CARTESIAN_POINT ( 'NONE',  ( 0.0000000000000000000, 0.0000000000000000000, 0.6250000000000000000 ) ) ;
#32 = APPROVAL_ROLE ( '' ) ;
#33 = PERSON_AND_ORGANIZATION ( #15, #161 ) ;
#34 = APPROVAL_DATE_TIME ( #132, #11 ) ;
#35 = ORIENTED_EDGE ( 'NONE', *, *, #17, .F. ) ;
#36 = LINE ( 'NONE', #56, #92 ) ;
#37 =( GEOMETRIC_REPRESENTATION_CONTEXT ( 3 ) GLOBAL_UNCERTAINTY_ASSIGNED_CONTEXT ( ( #117 ) ) GLOBAL_UNIT_ASSIGNED_CONTEXT ( ( #72, #152, #60 ) ) REPRESENTATION_CONTEXT ( 'NONE', 'WORKASPACE' ) );
#38 = DATE_AND_TIME ( #141, #162 ) ;
#39 = AXIS2_PLACEMENT_3D ( 'NONE', #31, #48, #97 ) ;
#40 = PERSON_AND_ORGANIZATION ( #15, #161 ) ;
#41 = VECTOR ( 'NONE', #100, 1000.000000000000000 ) ;
#42 = CARTESIAN_POINT ( 'NONE',  ( 0.0000000000000000000, 0.0000000000000000000, 0.6250000000000000000 ) ) ;
#43 = AXIS2_PLACEMENT_3D ( 'NONE', #167, #102, #139 ) ;
#44 = APPROVAL_STATUS ( 'not_yet_approved' ) ;
#45 = PLANE ( 'NONE',  #140 ) ;
#46 = APPLICATION_PROTOCOL_DEFINITION ( 'international standard', 'config_control_design', 1994, #29 ) ;
#47 = CC_DESIGN_SECURITY_CLASSIFICATION ( #81, ( #24 ) ) ;
#48 = DIRECTION ( 'NONE',  ( -0.0000000000000000000, -0.0000000000000000000, -1.000000000000000000 ) ) ;
#49 = APPROVAL_PERSON_ORGANIZATION ( #33, #53, #74 ) ;
#50 = CC_DESIGN_APPROVAL ( #9, ( #67 ) ) ;
#51 = DESIGN_CONTEXT ( 'detailed design', #84, 'design' ) ;
#52 = CC_DESIGN_PERSON_AND_ORGANIZATION_ASSIGNMENT ( #90, #113, ( #24 ) ) ;
#53 = APPROVAL ( #172, 'UNSPECIFIED' ) ;
#54 = CYLINDRICAL_SURFACE ( 'NONE', #39, 2.499999999999999600 ) ;
#55 = AXIS2_PLACEMENT_3D ( 'NONE', #104, #171, #73 ) ;
#56 = CARTESIAN_POINT ( 'NONE',  ( 2.499999999999999600, 3.061616997868382600E-016, 0.6250000000000000000 ) ) ;
#57 = PERSON_AND_ORGANIZATION_ROLE ( 'creator' ) ;
#58 = VERTEX_POINT ( 'NONE', #111 ) ;
#59 = CARTESIAN_POINT ( 'NONE',  ( 0.0000000000000000000, 0.0000000000000000000, 0.6250000000000000000 ) ) ;
#60 =( NAMED_UNIT ( * ) SI_UNIT ( $, .STERADIAN. ) SOLID_ANGLE_UNIT ( ) );
#61 = CYLINDRICAL_SURFACE ( 'NONE', #66, 2.499999999999999600 ) ;
#62 = PERSON_AND_ORGANIZATION ( #15, #161 ) ;
#63 = CARTESIAN_POINT ( 'NONE',  ( 0.0000000000000000000, 0.0000000000000000000, 0.6250000000000000000 ) ) ;
#64 = VERTEX_POINT ( 'NONE', #169 ) ;
#65 = APPROVAL_DATE_TIME ( #87, #9 ) ;
#66 = AXIS2_PLACEMENT_3D ( 'NONE', #63, #154, #7 ) ;
#67 = PRODUCT_DEFINITION ( 'UNKNOWN', '', #24, #51 ) ;
#68 = VERTEX_POINT ( 'NONE', #110 ) ;
#69 = CALENDAR_DATE ( 2017, 14, 6 ) ;
#70 = DIRECTION ( 'NONE',  ( 0.0000000000000000000, 0.0000000000000000000, 1.000000000000000000 ) ) ;
#71 = APPROVAL_STATUS ( 'not_yet_approved' ) ;
#72 =( LENGTH_UNIT ( ) NAMED_UNIT ( * ) SI_UNIT ( .MILLI., .METRE. ) );
#73 = DIRECTION ( 'NONE',  ( 1.000000000000000000, 0.0000000000000000000, -0.0000000000000000000 ) ) ;
#74 = APPROVAL_ROLE ( '' ) ;
#75 = ORIENTED_EDGE ( 'NONE', *, *, #30, .T. ) ;
#76 = COORDINATED_UNIVERSAL_TIME_OFFSET ( 5, 0, .BEHIND. ) ;
#77 = PRODUCT_DEFINITION_SHAPE ( 'NONE', 'NONE',  #67 ) ;
#78 = EDGE_CURVE ( 'NONE', #64, #20, #119, .T. ) ;
#79 = PERSON_AND_ORGANIZATION ( #15, #161 ) ;
#80 = ORIENTED_EDGE ( 'NONE', *, *, #130, .F. ) ;
#81 = SECURITY_CLASSIFICATION ( '', '', #105 ) ;
#82 = ORIENTED_EDGE ( 'NONE', *, *, #95, .T. ) ;
#83 = CALENDAR_DATE ( 2017, 14, 6 ) ;
#84 = APPLICATION_CONTEXT ( 'configuration controlled 3d designs of mechanical parts and assemblies' ) ;
#85 = CARTESIAN_POINT ( 'NONE',  ( -2.499999999999999600, 0.0000000000000000000, -0.6250000000000000000 ) ) ;
#86 = SHAPE_DEFINITION_REPRESENTATION ( #77, #134 ) ;
#87 = DATE_AND_TIME ( #25, #143 ) ;
#88 = CIRCLE ( 'NONE', #43, 2.499999999999999600 ) ;
#89 = DATE_TIME_ROLE ( 'classification_date' ) ;
#90 = PERSON_AND_ORGANIZATION ( #15, #161 ) ;
#91 = AXIS2_PLACEMENT_3D ( 'NONE', #168, #112, #12 ) ;
#92 = VECTOR ( 'NONE', #136, 1000.000000000000000 ) ;
#93 = APPROVAL_DATE_TIME ( #14, #53 ) ;
#94 = ORIENTED_EDGE ( 'NONE', *, *, #130, .T. ) ;
#95 = EDGE_CURVE ( 'NONE', #68, #58, #174, .T. ) ;
#96 = PERSON_AND_ORGANIZATION ( #15, #161 ) ;
#97 = DIRECTION ( 'NONE',  ( -1.000000000000000000, 0.0000000000000000000, 0.0000000000000000000 ) ) ;
#98 = CLOSED_SHELL ( 'NONE', ( #157, #151, #26, #145 ) ) ;
#99 = MECHANICAL_CONTEXT ( 'NONE', #29, 'mechanical' ) ;
#100 = DIRECTION ( 'NONE',  ( -0.0000000000000000000, -0.0000000000000000000, -1.000000000000000000 ) ) ;
#101 = FACE_OUTER_BOUND ( 'NONE', #158, .T. ) ;
#102 = DIRECTION ( 'NONE',  ( 0.0000000000000000000, 0.0000000000000000000, 1.000000000000000000 ) ) ;
#103 = LOCAL_TIME ( 13, 56, 29.00000000000000000, #126 ) ;
#104 = CARTESIAN_POINT ( 'NONE',  ( 0.0000000000000000000, 0.0000000000000000000, -0.6250000000000000000 ) ) ;
#105 = SECURITY_CLASSIFICATION_LEVEL ( 'unclassified' ) ;
#106 = CC_DESIGN_APPROVAL ( #11, ( #24 ) ) ;
#107 = PRODUCT ( 'Web Model 34467_34467', 'Web Model 34467_34467', '', ( #99 ) ) ;
#108 = ORIENTED_EDGE ( 'NONE', *, *, #78, .F. ) ;
#109 = DIRECTION ( 'NONE',  ( 1.000000000000000000, 0.0000000000000000000, 0.0000000000000000000 ) ) ;
#110 = CARTESIAN_POINT ( 'NONE',  ( 2.499999999999999600, 3.061616997868382600E-016, 0.6250000000000000000 ) ) ;
#111 = CARTESIAN_POINT ( 'NONE',  ( -2.499999999999999600, 0.0000000000000000000, 0.6250000000000000000 ) ) ;
#112 = DIRECTION ( 'NONE',  ( 0.0000000000000000000, 0.0000000000000000000, 1.000000000000000000 ) ) ;
#113 = PERSON_AND_ORGANIZATION_ROLE ( 'creator' ) ;
#114 = FACE_OUTER_BOUND ( 'NONE', #21, .T. ) ;
#115 = ORIENTED_EDGE ( 'NONE', *, *, #30, .F. ) ;
#116 = COORDINATED_UNIVERSAL_TIME_OFFSET ( 5, 0, .BEHIND. ) ;
#117 = UNCERTAINTY_MEASURE_WITH_UNIT (LENGTH_MEASURE( 1.000000000000000100E-005 ), #72, 'distance_accuracy_value', 'NONE');
#118 = CC_DESIGN_PERSON_AND_ORGANIZATION_ASSIGNMENT ( #96, #57, ( #67 ) ) ;
#119 = CIRCLE ( 'NONE', #138, 2.499999999999999600 ) ;
#120 = CC_DESIGN_DATE_AND_TIME_ASSIGNMENT ( #146, #137, ( #67 ) ) ;
#121 = FACE_OUTER_BOUND ( 'NONE', #153, .T. ) ;
#122 = CALENDAR_DATE ( 2017, 14, 6 ) ;
#123 = DIRECTION ( 'NONE',  ( 0.0000000000000000000, 0.0000000000000000000, 1.000000000000000000 ) ) ;
#124 = DIRECTION ( 'NONE',  ( 0.0000000000000000000, 0.0000000000000000000, 1.000000000000000000 ) ) ;
#125 = DIRECTION ( 'NONE',  ( 0.0000000000000000000, 0.0000000000000000000, 1.000000000000000000 ) ) ;
#126 = COORDINATED_UNIVERSAL_TIME_OFFSET ( 5, 0, .BEHIND. ) ;
#127 = CC_DESIGN_APPROVAL ( #53, ( #81 ) ) ;
#128 = LINE ( 'NONE', #5, #41 ) ;
#129 = PERSON_AND_ORGANIZATION ( #15, #161 ) ;
#130 = EDGE_CURVE ( 'NONE', #68, #64, #36, .T. ) ;
#131 = LOCAL_TIME ( 13, 56, 29.00000000000000000, #10 ) ;
#132 = DATE_AND_TIME ( #122, #131 ) ;
#133 = PRODUCT_RELATED_PRODUCT_CATEGORY ( 'detail', '', ( #107 ) ) ;
#134 = ADVANCED_BREP_SHAPE_REPRESENTATION ( 'Web Model 34467_34467', ( #159, #91 ), #37 ) ;
#135 = PERSON_AND_ORGANIZATION ( #15, #161 ) ;
#136 = DIRECTION ( 'NONE',  ( -0.0000000000000000000, -0.0000000000000000000, -1.000000000000000000 ) ) ;
#137 = DATE_TIME_ROLE ( 'creation_date' ) ;
#138 = AXIS2_PLACEMENT_3D ( 'NONE', #163, #70, #148 ) ;
#139 = DIRECTION ( 'NONE',  ( 1.000000000000000000, 0.0000000000000000000, 0.0000000000000000000 ) ) ;
#140 = AXIS2_PLACEMENT_3D ( 'NONE', #59, #125, #28 ) ;
#141 = CALENDAR_DATE ( 2017, 14, 6 ) ;
#142 = ORIENTED_EDGE ( 'NONE', *, *, #175, .F. ) ;
#143 = LOCAL_TIME ( 13, 56, 29.00000000000000000, #76 ) ;
#144 = CC_DESIGN_PERSON_AND_ORGANIZATION_ASSIGNMENT ( #79, #18, ( #24 ) ) ;
#145 = ADVANCED_FACE ( 'NONE', ( #101 ), #16, .F. ) ;
#146 = DATE_AND_TIME ( #69, #164 ) ;
#147 = FACE_OUTER_BOUND ( 'NONE', #23, .T. ) ;
#148 = DIRECTION ( 'NONE',  ( 1.000000000000000000, 0.0000000000000000000, 0.0000000000000000000 ) ) ;
#149 = CC_DESIGN_DATE_AND_TIME_ASSIGNMENT ( #38, #89, ( #81 ) ) ;
#150 = APPROVAL_ROLE ( '' ) ;
#151 = ADVANCED_FACE ( 'NONE', ( #147 ), #61, .T. ) ;
#152 =( NAMED_UNIT ( * ) PLANE_ANGLE_UNIT ( ) SI_UNIT ( $, .RADIAN. ) );
#153 = EDGE_LOOP ( 'NONE', ( #75, #82 ) ) ;
#154 = DIRECTION ( 'NONE',  ( -0.0000000000000000000, -0.0000000000000000000, -1.000000000000000000 ) ) ;
#155 = CC_DESIGN_PERSON_AND_ORGANIZATION_ASSIGNMENT ( #135, #4, ( #107 ) ) ;
#156 = AXIS2_PLACEMENT_3D ( 'NONE', #3, #124, #27 ) ;
#157 = ADVANCED_FACE ( 'NONE', ( #114 ), #54, .T. ) ;
#158 = EDGE_LOOP ( 'NONE', ( #35, #108 ) ) ;
#159 = MANIFOLD_SOLID_BREP ( 'Boss-Extrude1', #98 ) ;
#160 = APPROVAL_PERSON_ORGANIZATION ( #129, #9, #150 ) ;
#161 = ORGANIZATION ( 'UNSPECIFIED', 'UNSPECIFIED', '' ) ;
#162 = LOCAL_TIME ( 13, 56, 29.00000000000000000, #22 ) ;
#163 = CARTESIAN_POINT ( 'NONE',  ( 0.0000000000000000000, 0.0000000000000000000, -0.6250000000000000000 ) ) ;
#164 = LOCAL_TIME ( 13, 56, 29.00000000000000000, #116 ) ;
#165 = ORIENTED_EDGE ( 'NONE', *, *, #95, .F. ) ;
#166 = APPLICATION_PROTOCOL_DEFINITION ( 'international standard', 'config_control_design', 1994, #84 ) ;
#167 = CARTESIAN_POINT ( 'NONE',  ( 0.0000000000000000000, 0.0000000000000000000, -0.6250000000000000000 ) ) ;
#168 = CARTESIAN_POINT ( 'NONE',  ( 0.0000000000000000000, 0.0000000000000000000, 0.0000000000000000000 ) ) ;
#169 = CARTESIAN_POINT ( 'NONE',  ( 2.499999999999999600, 3.061616997868382600E-016, -0.6250000000000000000 ) ) ;
#170 = ORIENTED_EDGE ( 'NONE', *, *, #175, .T. ) ;
#171 = DIRECTION ( 'NONE',  ( 0.0000000000000000000, 0.0000000000000000000, 1.000000000000000000 ) ) ;
#172 = APPROVAL_STATUS ( 'not_yet_approved' ) ;
#173 = ORIENTED_EDGE ( 'NONE', *, *, #17, .T. ) ;
#174 = CIRCLE ( 'NONE', #13, 2.499999999999999600 ) ;
#175 = EDGE_CURVE ( 'NONE', #58, #20, #128, .T. ) ;
ENDSEC;
END-ISO-10303-21;
