ISO-10303-21;
HEADER;
FILE_DESCRIPTION (( 'STEP AP203' ),
    '1' );
FILE_NAME ('Web Model 64146.STEP',
    '2017-01-31T19:05:56',
    ( '' ),
    ( '' ),
    'SwSTEP 2.0',
    'SolidWorks 2016',
    '' );
FILE_SCHEMA (( 'CONFIG_CONTROL_DESIGN' ));
ENDSEC;

DATA;
#1 = COORDINATED_UNIVERSAL_TIME_OFFSET ( 5, 0, .BEHIND. ) ;
#2 = PERSON_AND_ORGANIZATION ( #85, #59 ) ;
#3 = CALENDAR_DATE ( 2017, 31, 1 ) ;
#4 = EDGE_CURVE ( 'NONE', #105, #57, #68, .T. ) ;
#5 = VECTOR ( 'NONE', #134, 1000.000000000000000 ) ;
#6 = DIRECTION ( 'NONE',  ( 1.000000000000000000, 0.0000000000000000000, 0.0000000000000000000 ) ) ;
#7 = EDGE_LOOP ( 'NONE', ( #83, #156 ) ) ;
#8 = VERTEX_POINT ( 'NONE', #144 ) ;
#9 = PRODUCT_DEFINITION ( 'UNKNOWN', '', #71, #96 ) ;
#10 = DATE_TIME_ROLE ( 'creation_date' ) ;
#11 = PERSON_AND_ORGANIZATION ( #85, #59 ) ;
#12 = ADVANCED_FACE ( 'NONE', ( #64 ), #86, .T. ) ;
#13 = ADVANCED_FACE ( 'NONE', ( #151 ), #47, .T. ) ;
#14 = CARTESIAN_POINT ( 'NONE',  ( 0.0000000000000000000, 0.0000000000000000000, 4.000000000000000000 ) ) ;
#15 = DIRECTION ( 'NONE',  ( -0.0000000000000000000, -0.0000000000000000000, -1.000000000000000000 ) ) ;
#16 = ORIENTED_EDGE ( 'NONE', *, *, #79, .F. ) ;
#17 = PERSON_AND_ORGANIZATION_ROLE ( 'creator' ) ;
#18 = SECURITY_CLASSIFICATION_LEVEL ( 'unclassified' ) ;
#19 = APPROVAL_ROLE ( '' ) ;
#20 = PERSON_AND_ORGANIZATION ( #85, #59 ) ;
#21 = DIRECTION ( 'NONE',  ( 1.000000000000000000, 0.0000000000000000000, 0.0000000000000000000 ) ) ;
#22 = EDGE_CURVE ( 'NONE', #8, #60, #28, .T. ) ;
#23 = EDGE_CURVE ( 'NONE', #57, #105, #147, .T. ) ;
#24 = PRODUCT_DEFINITION_SHAPE ( 'NONE', 'NONE',  #9 ) ;
#25 = LOCAL_TIME ( 14, 5, 56.00000000000000000, #61 ) ;
#26 = DATE_AND_TIME ( #111, #25 ) ;
#27 = AXIS2_PLACEMENT_3D ( 'NONE', #98, #157, #6 ) ;
#28 = CIRCLE ( 'NONE', #133, 20.00000000000000000 ) ;
#29 = CC_DESIGN_APPROVAL ( #168, ( #174 ) ) ;
#30 = CC_DESIGN_PERSON_AND_ORGANIZATION_ASSIGNMENT ( #2, #138, ( #71 ) ) ;
#31 = PERSON_AND_ORGANIZATION ( #85, #59 ) ;
#32 = CC_DESIGN_SECURITY_CLASSIFICATION ( #174, ( #71 ) ) ;
#33 = COORDINATED_UNIVERSAL_TIME_OFFSET ( 5, 0, .BEHIND. ) ;
#34 = ORIENTED_EDGE ( 'NONE', *, *, #37, .F. ) ;
#35 = LINE ( 'NONE', #36, #5 ) ;
#36 = CARTESIAN_POINT ( 'NONE',  ( 20.00000000000000000, 2.449293598294706500E-015, 4.000000000000000000 ) ) ;
#37 = EDGE_CURVE ( 'NONE', #57, #8, #93, .T. ) ;
#38 = SHAPE_DEFINITION_REPRESENTATION ( #24, #118 ) ;
#39 = APPROVAL_PERSON_ORGANIZATION ( #160, #84, #70 ) ;
#40 = APPROVAL ( #149, 'UNSPECIFIED' ) ;
#41 = ORIENTED_EDGE ( 'NONE', *, *, #171, .T. ) ;
#42 = APPLICATION_PROTOCOL_DEFINITION ( 'international standard', 'config_control_design', 1994, #173 ) ;
#43 = AXIS2_PLACEMENT_3D ( 'NONE', #121, #88, #146 ) ;
#44 = CALENDAR_DATE ( 2017, 31, 1 ) ;
#45 = CALENDAR_DATE ( 2017, 31, 1 ) ;
#46 = DIRECTION ( 'NONE',  ( 0.0000000000000000000, 0.0000000000000000000, 1.000000000000000000 ) ) ;
#47 = CYLINDRICAL_SURFACE ( 'NONE', #100, 20.00000000000000000 ) ;
#48 = CC_DESIGN_APPROVAL ( #40, ( #9 ) ) ;
#49 = DIRECTION ( 'NONE',  ( -1.000000000000000000, 0.0000000000000000000, 0.0000000000000000000 ) ) ;
#50 = DIRECTION ( 'NONE',  ( 1.000000000000000000, 0.0000000000000000000, -0.0000000000000000000 ) ) ;
#51 = APPROVAL_PERSON_ORGANIZATION ( #76, #40, #19 ) ;
#52 = DIRECTION ( 'NONE',  ( -0.0000000000000000000, -0.0000000000000000000, -1.000000000000000000 ) ) ;
#53 = APPROVAL_DATE_TIME ( #108, #84 ) ;
#54 = CARTESIAN_POINT ( 'NONE',  ( -20.00000000000000000, 0.0000000000000000000, 4.000000000000000000 ) ) ;
#55 = CALENDAR_DATE ( 2017, 31, 1 ) ;
#56 = CARTESIAN_POINT ( 'NONE',  ( 0.0000000000000000000, 0.0000000000000000000, 0.0000000000000000000 ) ) ;
#57 = VERTEX_POINT ( 'NONE', #69 ) ;
#58 = DIRECTION ( 'NONE',  ( 0.0000000000000000000, 0.0000000000000000000, 1.000000000000000000 ) ) ;
#59 = ORGANIZATION ( 'UNSPECIFIED', 'UNSPECIFIED', '' ) ;
#60 = VERTEX_POINT ( 'NONE', #66 ) ;
#61 = COORDINATED_UNIVERSAL_TIME_OFFSET ( 5, 0, .BEHIND. ) ;
#62 = CC_DESIGN_DATE_AND_TIME_ASSIGNMENT ( #164, #10, ( #9 ) ) ;
#63 = FACE_OUTER_BOUND ( 'NONE', #145, .T. ) ;
#64 = FACE_OUTER_BOUND ( 'NONE', #161, .T. ) ;
#65 = PERSON_AND_ORGANIZATION ( #85, #59 ) ;
#66 = CARTESIAN_POINT ( 'NONE',  ( 20.00000000000000000, 2.449293598294706500E-015, 0.0000000000000000000 ) ) ;
#67 = DATE_AND_TIME ( #55, #170 ) ;
#68 = CIRCLE ( 'NONE', #27, 20.00000000000000000 ) ;
#69 = CARTESIAN_POINT ( 'NONE',  ( -20.00000000000000000, 0.0000000000000000000, 4.000000000000000000 ) ) ;
#70 = APPROVAL_ROLE ( '' ) ;
#71 = PRODUCT_DEFINITION_FORMATION_WITH_SPECIFIED_SOURCE ( 'ANY', '', #131, .NOT_KNOWN. ) ;
#72 =( LENGTH_UNIT ( ) NAMED_UNIT ( * ) SI_UNIT ( .MILLI., .METRE. ) );
#73 = APPLICATION_PROTOCOL_DEFINITION ( 'international standard', 'config_control_design', 1994, #74 ) ;
#74 = APPLICATION_CONTEXT ( 'configuration controlled 3d designs of mechanical parts and assemblies' ) ;
#75 = MANIFOLD_SOLID_BREP ( 'Extrude1', #166 ) ;
#76 = PERSON_AND_ORGANIZATION ( #85, #59 ) ;
#77 = ORIENTED_EDGE ( 'NONE', *, *, #4, .T. ) ;
#78 = ADVANCED_FACE ( 'NONE', ( #63 ), #91, .T. ) ;
#79 = EDGE_CURVE ( 'NONE', #105, #60, #35, .T. ) ;
#80 = CC_DESIGN_DATE_AND_TIME_ASSIGNMENT ( #26, #162, ( #174 ) ) ;
#81 = DIRECTION ( 'NONE',  ( 1.000000000000000000, 0.0000000000000000000, 0.0000000000000000000 ) ) ;
#82 = CARTESIAN_POINT ( 'NONE',  ( 0.0000000000000000000, 0.0000000000000000000, 4.000000000000000000 ) ) ;
#83 = ORIENTED_EDGE ( 'NONE', *, *, #22, .F. ) ;
#84 = APPROVAL ( #126, 'UNSPECIFIED' ) ;
#85 = PERSON ( 'UNSPECIFIED', 'UNSPECIFIED', 'UNSPECIFIED', ('UNSPECIFIED'), ('UNSPECIFIED'), ('UNSPECIFIED') ) ;
#86 = PLANE ( 'NONE',  #127 ) ;
#87 = AXIS2_PLACEMENT_3D ( 'NONE', #158, #15, #122 ) ;
#88 = DIRECTION ( 'NONE',  ( 0.0000000000000000000, 0.0000000000000000000, 1.000000000000000000 ) ) ;
#89 = APPROVAL_DATE_TIME ( #123, #168 ) ;
#90 = PERSON_AND_ORGANIZATION ( #85, #59 ) ;
#91 = CYLINDRICAL_SURFACE ( 'NONE', #87, 20.00000000000000000 ) ;
#92 = LOCAL_TIME ( 14, 5, 56.00000000000000000, #132 ) ;
#93 = LINE ( 'NONE', #54, #114 ) ;
#94 = APPROVAL_ROLE ( '' ) ;
#95 = APPROVAL_DATE_TIME ( #67, #40 ) ;
#96 = DESIGN_CONTEXT ( 'detailed design', #74, 'design' ) ;
#97 = AXIS2_PLACEMENT_3D ( 'NONE', #56, #110, #21 ) ;
#98 = CARTESIAN_POINT ( 'NONE',  ( 0.0000000000000000000, 0.0000000000000000000, 4.000000000000000000 ) ) ;
#99 = UNCERTAINTY_MEASURE_WITH_UNIT (LENGTH_MEASURE( 1.000000000000000100E-005 ), #72, 'distance_accuracy_value', 'NONE');
#100 = AXIS2_PLACEMENT_3D ( 'NONE', #14, #130, #49 ) ;
#101 = FACE_OUTER_BOUND ( 'NONE', #7, .T. ) ;
#102 = DIRECTION ( 'NONE',  ( 0.0000000000000000000, 0.0000000000000000000, 1.000000000000000000 ) ) ;
#103 = DIRECTION ( 'NONE',  ( 1.000000000000000000, 0.0000000000000000000, -0.0000000000000000000 ) ) ;
#104 = DIRECTION ( 'NONE',  ( 0.0000000000000000000, 0.0000000000000000000, 1.000000000000000000 ) ) ;
#105 = VERTEX_POINT ( 'NONE', #106 ) ;
#106 = CARTESIAN_POINT ( 'NONE',  ( 20.00000000000000000, 2.449293598294706500E-015, 4.000000000000000000 ) ) ;
#107 = DIRECTION ( 'NONE',  ( 1.000000000000000000, 0.0000000000000000000, 0.0000000000000000000 ) ) ;
#108 = DATE_AND_TIME ( #3, #148 ) ;
#109 = CC_DESIGN_APPROVAL ( #84, ( #71 ) ) ;
#110 = DIRECTION ( 'NONE',  ( 0.0000000000000000000, 0.0000000000000000000, 1.000000000000000000 ) ) ;
#111 = CALENDAR_DATE ( 2017, 31, 1 ) ;
#112 =( GEOMETRIC_REPRESENTATION_CONTEXT ( 3 ) GLOBAL_UNCERTAINTY_ASSIGNED_CONTEXT ( ( #99 ) ) GLOBAL_UNIT_ASSIGNED_CONTEXT ( ( #72, #175, #140 ) ) REPRESENTATION_CONTEXT ( 'NONE', 'WORKASPACE' ) );
#113 = CIRCLE ( 'NONE', #97, 20.00000000000000000 ) ;
#114 = VECTOR ( 'NONE', #52, 1000.000000000000000 ) ;
#115 = ORIENTED_EDGE ( 'NONE', *, *, #4, .F. ) ;
#116 = ORIENTED_EDGE ( 'NONE', *, *, #23, .F. ) ;
#117 = CARTESIAN_POINT ( 'NONE',  ( 0.0000000000000000000, 0.0000000000000000000, 0.0000000000000000000 ) ) ;
#118 = ADVANCED_BREP_SHAPE_REPRESENTATION ( 'Web Model 64146', ( #75, #155 ), #112 ) ;
#119 = ORIENTED_EDGE ( 'NONE', *, *, #22, .T. ) ;
#120 = PLANE ( 'NONE',  #129 ) ;
#121 = CARTESIAN_POINT ( 'NONE',  ( 0.0000000000000000000, 0.0000000000000000000, 4.000000000000000000 ) ) ;
#122 = DIRECTION ( 'NONE',  ( -1.000000000000000000, 0.0000000000000000000, 0.0000000000000000000 ) ) ;
#123 = DATE_AND_TIME ( #44, #143 ) ;
#124 = PERSON_AND_ORGANIZATION_ROLE ( 'classification_officer' ) ;
#125 = CARTESIAN_POINT ( 'NONE',  ( 0.0000000000000000000, 0.0000000000000000000, 0.0000000000000000000 ) ) ;
#126 = APPROVAL_STATUS ( 'not_yet_approved' ) ;
#127 = AXIS2_PLACEMENT_3D ( 'NONE', #82, #102, #103 ) ;
#128 = PRODUCT_RELATED_PRODUCT_CATEGORY ( 'detail', '', ( #131 ) ) ;
#129 = AXIS2_PLACEMENT_3D ( 'NONE', #169, #104, #50 ) ;
#130 = DIRECTION ( 'NONE',  ( -0.0000000000000000000, -0.0000000000000000000, -1.000000000000000000 ) ) ;
#131 = PRODUCT ( 'Web Model 64146', 'Web Model 64146', '', ( #163 ) ) ;
#132 = COORDINATED_UNIVERSAL_TIME_OFFSET ( 5, 0, .BEHIND. ) ;
#133 = AXIS2_PLACEMENT_3D ( 'NONE', #117, #46, #81 ) ;
#134 = DIRECTION ( 'NONE',  ( -0.0000000000000000000, -0.0000000000000000000, -1.000000000000000000 ) ) ;
#135 = ORIENTED_EDGE ( 'NONE', *, *, #23, .T. ) ;
#136 = PERSON_AND_ORGANIZATION_ROLE ( 'design_owner' ) ;
#137 = CC_DESIGN_PERSON_AND_ORGANIZATION_ASSIGNMENT ( #20, #17, ( #9 ) ) ;
#138 = PERSON_AND_ORGANIZATION_ROLE ( 'creator' ) ;
#139 = CC_DESIGN_PERSON_AND_ORGANIZATION_ASSIGNMENT ( #65, #172, ( #71 ) ) ;
#140 =( NAMED_UNIT ( * ) SI_UNIT ( $, .STERADIAN. ) SOLID_ANGLE_UNIT ( ) );
#141 = CC_DESIGN_PERSON_AND_ORGANIZATION_ASSIGNMENT ( #11, #136, ( #131 ) ) ;
#142 = ADVANCED_FACE ( 'NONE', ( #101 ), #120, .F. ) ;
#143 = LOCAL_TIME ( 14, 5, 56.00000000000000000, #1 ) ;
#144 = CARTESIAN_POINT ( 'NONE',  ( -20.00000000000000000, 0.0000000000000000000, 0.0000000000000000000 ) ) ;
#145 = EDGE_LOOP ( 'NONE', ( #115, #150, #41, #34 ) ) ;
#146 = DIRECTION ( 'NONE',  ( 1.000000000000000000, 0.0000000000000000000, 0.0000000000000000000 ) ) ;
#147 = CIRCLE ( 'NONE', #43, 20.00000000000000000 ) ;
#148 = LOCAL_TIME ( 14, 5, 56.00000000000000000, #152 ) ;
#149 = APPROVAL_STATUS ( 'not_yet_approved' ) ;
#150 = ORIENTED_EDGE ( 'NONE', *, *, #79, .T. ) ;
#151 = FACE_OUTER_BOUND ( 'NONE', #153, .T. ) ;
#152 = COORDINATED_UNIVERSAL_TIME_OFFSET ( 5, 0, .BEHIND. ) ;
#153 = EDGE_LOOP ( 'NONE', ( #16, #116, #167, #119 ) ) ;
#154 = CC_DESIGN_PERSON_AND_ORGANIZATION_ASSIGNMENT ( #31, #124, ( #174 ) ) ;
#155 = AXIS2_PLACEMENT_3D ( 'NONE', #125, #58, #107 ) ;
#156 = ORIENTED_EDGE ( 'NONE', *, *, #171, .F. ) ;
#157 = DIRECTION ( 'NONE',  ( 0.0000000000000000000, 0.0000000000000000000, 1.000000000000000000 ) ) ;
#158 = CARTESIAN_POINT ( 'NONE',  ( 0.0000000000000000000, 0.0000000000000000000, 4.000000000000000000 ) ) ;
#159 = APPROVAL_PERSON_ORGANIZATION ( #90, #168, #94 ) ;
#160 = PERSON_AND_ORGANIZATION ( #85, #59 ) ;
#161 = EDGE_LOOP ( 'NONE', ( #135, #77 ) ) ;
#162 = DATE_TIME_ROLE ( 'classification_date' ) ;
#163 = MECHANICAL_CONTEXT ( 'NONE', #173, 'mechanical' ) ;
#164 = DATE_AND_TIME ( #45, #92 ) ;
#165 = APPROVAL_STATUS ( 'not_yet_approved' ) ;
#166 = CLOSED_SHELL ( 'NONE', ( #78, #13, #12, #142 ) ) ;
#167 = ORIENTED_EDGE ( 'NONE', *, *, #37, .T. ) ;
#168 = APPROVAL ( #165, 'UNSPECIFIED' ) ;
#169 = CARTESIAN_POINT ( 'NONE',  ( 0.0000000000000000000, 0.0000000000000000000, 0.0000000000000000000 ) ) ;
#170 = LOCAL_TIME ( 14, 5, 56.00000000000000000, #33 ) ;
#171 = EDGE_CURVE ( 'NONE', #60, #8, #113, .T. ) ;
#172 = PERSON_AND_ORGANIZATION_ROLE ( 'design_supplier' ) ;
#173 = APPLICATION_CONTEXT ( 'configuration controlled 3d designs of mechanical parts and assemblies' ) ;
#174 = SECURITY_CLASSIFICATION ( '', '', #18 ) ;
#175 =( NAMED_UNIT ( * ) PLANE_ANGLE_UNIT ( ) SI_UNIT ( $, .RADIAN. ) );
ENDSEC;
END-ISO-10303-21;
