ISO-10303-21;
HEADER;
FILE_DESCRIPTION (( 'STEP AP203' ),
    '1' );
FILE_NAME ('25mm BEAMSPLITTER CUBE TS_13420.step',
    '2020-09-21T13:58:03',
    ( '' ),
    ( '' ),
    'SwSTEP 2.0',
    'SolidWorks 2018',
    '' );
FILE_SCHEMA (( 'CONFIG_CONTROL_DESIGN' ));
ENDSEC;

DATA;
#1 = APPROVAL ( #347, 'UNSPECIFIED' ) ;
#2 = CALENDAR_DATE ( 2020, 21, 9 ) ;
#3 = EDGE_CURVE ( 'NONE', #44, #89, #188, .T. ) ;
#4 = SECURITY_CLASSIFICATION ( '', '', #229 ) ;
#5 = VECTOR ( 'NONE', #122, 1000.000000000000000 ) ;
#6 = DATE_AND_TIME ( #68, #341 ) ;
#7 = COORDINATED_UNIVERSAL_TIME_OFFSET ( 5, 0, .BEHIND. ) ;
#8 = COORDINATED_UNIVERSAL_TIME_OFFSET ( 5, 0, .BEHIND. ) ;
#9 = DATE_TIME_ROLE ( 'creation_date' ) ;
#10 = CC_DESIGN_PERSON_AND_ORGANIZATION_ASSIGNMENT ( #150, #176, ( #45 ) ) ;
#11 = ORGANIZATION ( 'NAUO-ORG1', 'UNSPECIFIED', 'UNSPECIFIED' ) ;
#12 = PERSON_AND_ORGANIZATION ( #279, #129 ) ;
#13 = APPROVAL_STATUS ( 'not_yet_approved' ) ;
#14 = PRODUCT_DEFINITION_SHAPE ( 'NONE', 'NONE',  #360 ) ;
#15 = PERSON_AND_ORGANIZATION_ROLE ( 'design_owner' ) ;
#16 =( GEOMETRIC_REPRESENTATION_CONTEXT ( 3 ) GLOBAL_UNCERTAINTY_ASSIGNED_CONTEXT ( ( #316 ) ) GLOBAL_UNIT_ASSIGNED_CONTEXT ( ( #237, #183, #261 ) ) REPRESENTATION_CONTEXT ( 'NONE', 'WORKASPACE' ) );
#17 = APPROVAL_ROLE ( '' ) ;
#18 = CC_DESIGN_DATE_AND_TIME_ASSIGNMENT ( #253, #9, ( #275 ) ) ;
#19 = EDGE_CURVE ( 'NONE', #57, #350, #62, .T. ) ;
#20 = LINE ( 'NONE', #124, #5 ) ;
#21 = PERSON_AND_ORGANIZATION ( #279, #129 ) ;
#22 = ORIENTED_EDGE ( 'NONE', *, *, #79, .T. ) ;
#23 = CC_DESIGN_PERSON_AND_ORGANIZATION_ASSIGNMENT ( #191, #42, ( #83 ) ) ;
#24 = PRODUCT_DEFINITION_SHAPE ( 'NONE', 'NONE',  #275 ) ;
#25 = CC_DESIGN_PERSON_AND_ORGANIZATION_ASSIGNMENT ( #163, #96, ( #342 ) ) ;
#26 = PERSON_AND_ORGANIZATION ( #279, #129 ) ;
#27 = LOCAL_TIME ( 9, 58, 3.000000000000000000, #323 ) ;
#28 = PERSON ( 'NAUO-PER1', 'UNSPECIFIED', 'UNSPECIFIED', ('UNSPECIFIED'), ('UNSPECIFIED'), ('UNSPECIFIED') ) ;
#29 = PRODUCT_DEFINITION_SHAPE ( 'NONE', 'NONE',  #342 ) ;
#30 = ORIENTED_EDGE ( 'NONE', *, *, #189, .T. ) ;
#31 = AXIS2_PLACEMENT_3D ( 'NONE', #241, #135, #158 ) ;
#32 = FACE_OUTER_BOUND ( 'NONE', #242, .T. ) ;
#33 = CONTEXT_DEPENDENT_SHAPE_REPRESENTATION ( #41, #87 ) ;
#34 = APPLICATION_CONTEXT ( 'configuration controlled 3d designs of mechanical parts and assemblies' ) ;
#35 = LOCAL_TIME ( 9, 58, 3.000000000000000000, #114 ) ;
#36 = AXIS2_PLACEMENT_3D ( 'NONE', #46, #265, #148 ) ;
#37 =( NAMED_UNIT ( * ) SI_UNIT ( $, .STERADIAN. ) SOLID_ANGLE_UNIT ( ) );
#38 = PERSON_AND_ORGANIZATION_ROLE ( 'design_owner' ) ;
#39 = CALENDAR_DATE ( 2020, 21, 9 ) ;
#40 = COORDINATED_UNIVERSAL_TIME_OFFSET ( 5, 0, .BEHIND. ) ;
#41 =( REPRESENTATION_RELATIONSHIP ('NONE','NONE', #331, #91 ) REPRESENTATION_RELATIONSHIP_WITH_TRANSFORMATION ( #254 )SHAPE_REPRESENTATION_RELATIONSHIP( ) );
#42 = PERSON_AND_ORGANIZATION_ROLE ( 'creator' ) ;
#43 = PERSON_AND_ORGANIZATION_ROLE ( 'classification_officer' ) ;
#44 = VERTEX_POINT ( 'NONE', #325 ) ;
#45 = PRODUCT_DEFINITION_FORMATION_WITH_SPECIFIED_SOURCE ( 'ANY', '', #196, .NOT_KNOWN. ) ;
#46 = CARTESIAN_POINT ( 'NONE',  ( 0.0000000000000000000, 0.0000000000000000000, 0.0000000000000000000 ) ) ;
#47 = PLANE ( 'NONE',  #31 ) ;
#48 = CARTESIAN_POINT ( 'NONE',  ( -12.50000000000000000, -2.164890140588744579E-15, -17.67766952966377758 ) ) ;
#49 = ORIENTED_EDGE ( 'NONE', *, *, #227, .F. ) ;
#50 = LOCAL_TIME ( 9, 58, 3.000000000000000000, #198 ) ;
#51 = EDGE_CURVE ( 'NONE', #89, #326, #246, .T. ) ;
#52 = DATE_AND_TIME ( #117, #290 ) ;
#53 = DATE_AND_TIME ( #319, #35 ) ;
#54 = CC_DESIGN_PERSON_AND_ORGANIZATION_ASSIGNMENT ( #278, #293, ( #348 ) ) ;
#55 = CARTESIAN_POINT ( 'NONE',  ( 12.50000000000000000, 17.67766952966358929, -1.112641391681767256E-15 ) ) ;
#56 = CARTESIAN_POINT ( 'NONE',  ( 12.50000000000000000, 17.67766952966358929, -1.112641391681767256E-15 ) ) ;
#57 = VERTEX_POINT ( 'NONE', #56 ) ;
#58 = APPROVAL_DATE_TIME ( #247, #67 ) ;
#59 = DATE_AND_TIME ( #84, #317 ) ;
#60 = CC_DESIGN_DATE_AND_TIME_ASSIGNMENT ( #6, #318, ( #348 ) ) ;
#61 = CC_DESIGN_SECURITY_CLASSIFICATION ( #4, ( #361 ) ) ;
#62 = LINE ( 'NONE', #358, #207 ) ;
#63 = FACE_OUTER_BOUND ( 'NONE', #153, .T. ) ;
#64 = APPROVAL_PERSON_ORGANIZATION ( #206, #268, #178 ) ;
#65 = DATE_AND_TIME ( #138, #208 ) ;
#66 = PRODUCT ( '25mm BEAMSPLITTER CUBE TS_13420', '25mm BEAMSPLITTER CUBE TS_13420', '', ( #152 ) ) ;
#67 = APPROVAL ( #345, 'UNSPECIFIED' ) ;
#68 = CALENDAR_DATE ( 2020, 21, 9 ) ;
#69 = APPROVAL_STATUS ( 'not_yet_approved' ) ;
#70 = CC_DESIGN_APPROVAL ( #230, ( #348 ) ) ;
#71 = ORIENTED_EDGE ( 'NONE', *, *, #51, .T. ) ;
#72 = APPLICATION_PROTOCOL_DEFINITION ( 'international standard', 'config_control_design', 1994, #34 ) ;
#73 = LINE ( 'NONE', #239, #272 ) ;
#74 = COORDINATED_UNIVERSAL_TIME_OFFSET ( 5, 0, .BEHIND. ) ;
#75 = CARTESIAN_POINT ( 'NONE',  ( 0.0000000000000000000, 0.0000000000000000000, 0.0000000000000000000 ) ) ;
#76 = SECURITY_CLASSIFICATION ( '', '', #125 ) ;
#77 = LOCAL_TIME ( 9, 58, 3.000000000000000000, #8 ) ;
#78 = DIRECTION ( 'NONE',  ( -1.000000000000000000, 0.0000000000000000000, 0.0000000000000000000 ) ) ;
#79 = EDGE_CURVE ( 'NONE', #57, #44, #311, .T. ) ;
#80 = APPROVAL ( #215, 'UNKNOWN' ) ;
#81 = COORDINATED_UNIVERSAL_TIME_OFFSET ( 5, 0, .BEHIND. ) ;
#82 = COORDINATED_UNIVERSAL_TIME_OFFSET ( 5, 0, .BEHIND. ) ;
#83 = PRODUCT_DEFINITION_FORMATION_WITH_SPECIFIED_SOURCE ( 'ANY', '', #66, .NOT_KNOWN. ) ;
#84 = CALENDAR_DATE ( 2020, 21, 9 ) ;
#85 = PERSON_AND_ORGANIZATION ( #279, #129 ) ;
#86 = PERSON_AND_ORGANIZATION ( #279, #129 ) ;
#87 = PRODUCT_DEFINITION_SHAPE ( 'NONE', 'NONE',  #361 ) ;
#88 = EDGE_CURVE ( 'NONE', #118, #57, #20, .T. ) ;
#89 = VERTEX_POINT ( 'NONE', #232 ) ;
#90 = SHAPE_REPRESENTATION_RELATIONSHIP ( 'NONE' , 'NONE' ,  #91, #235 ) ;
#91 = SHAPE_REPRESENTATION ( '25x25 Right Angle Prism Master', ( #285 ), #16 ) ;
#92 = AXIS2_PLACEMENT_3D ( 'NONE', #156, #106, #154 ) ;
#93 = DIRECTION ( 'NONE',  ( -5.551115123125782702E-17, 0.0000000000000000000, -1.000000000000000222 ) ) ;
#94 =( GEOMETRIC_REPRESENTATION_CONTEXT ( 3 ) GLOBAL_UNCERTAINTY_ASSIGNED_CONTEXT ( ( #121 ) ) GLOBAL_UNIT_ASSIGNED_CONTEXT ( ( #250, #197, #37 ) ) REPRESENTATION_CONTEXT ( 'NONE', 'WORKASPACE' ) );
#95 = DIRECTION ( 'NONE',  ( 0.0000000000000000000, 6.123233995736767268E-17, 1.000000000000000000 ) ) ;
#96 = PERSON_AND_ORGANIZATION_ROLE ( 'creator' ) ;
#97 = APPROVAL_DATE_TIME ( #248, #268 ) ;
#98 = DATE_TIME_ROLE ( 'classification_date' ) ;
#99 = AXIS2_PLACEMENT_3D ( 'NONE', #344, #202, #95 ) ;
#100 =( REPRESENTATION_RELATIONSHIP ('NONE','NONE', #331, #91 ) REPRESENTATION_RELATIONSHIP_WITH_TRANSFORMATION ( #353 )SHAPE_REPRESENTATION_RELATIONSHIP( ) );
#101 = APPLICATION_CONTEXT ( 'configuration controlled 3d designs of mechanical parts and assemblies' ) ;
#102 = CC_DESIGN_APPROVAL ( #140, ( #222 ) ) ;
#103 = APPLICATION_PROTOCOL_DEFINITION ( 'international standard', 'config_control_design', 1994, #101 ) ;
#104 = CALENDAR_DATE ( 2020, 21, 9 ) ;
#105 = PLANE ( 'NONE',  #359 ) ;
#106 = DIRECTION ( 'NONE',  ( 0.0000000000000000000, -0.7071067811865512365, 0.7071067811865439090 ) ) ;
#107 = DIRECTION ( 'NONE',  ( -1.000000000000000000, -0.0000000000000000000, -0.0000000000000000000 ) ) ;
#108 = LOCAL_TIME ( 9, 58, 3.000000000000000000, #81 ) ;
#109 = CC_DESIGN_APPROVAL ( #67, ( #275 ) ) ;
#110 = SHAPE_DEFINITION_REPRESENTATION ( #24, #331 ) ;
#111 = ORIENTED_EDGE ( 'NONE', *, *, #88, .F. ) ;
#112 = DIRECTION ( 'NONE',  ( 0.0000000000000000000, -0.7071067811865439090, 0.7071067811865512365 ) ) ;
#113 = ORGANIZATION ( 'NAUO-ORG2', 'UNSPECIFIED', 'UNSPECIFIED' ) ;
#114 = COORDINATED_UNIVERSAL_TIME_OFFSET ( 5, 0, .BEHIND. ) ;
#115 = AXIS2_PLACEMENT_3D ( 'NONE', #143, #280, #93 ) ;
#116 = ORIENTED_EDGE ( 'NONE', *, *, #3, .T. ) ;
#117 = CALENDAR_DATE ( 2020, 21, 9 ) ;
#118 = VERTEX_POINT ( 'NONE', #177 ) ;
#119 = ADVANCED_FACE ( 'NONE', ( #205 ), #209, .F. ) ;
#120 = CC_DESIGN_PERSON_AND_ORGANIZATION_ASSIGNMENT ( #86, #171, ( #45 ) ) ;
#121 = UNCERTAINTY_MEASURE_WITH_UNIT (LENGTH_MEASURE( 1.000000000000000082E-05 ), #250, 'distance_accuracy_value', 'NONE');
#122 = DIRECTION ( 'NONE',  ( 0.0000000000000000000, 0.7071067811865439090, 0.7071067811865512365 ) ) ;
#123 = COORDINATED_UNIVERSAL_TIME_OFFSET ( 5, 0, .BEHIND. ) ;
#124 = CARTESIAN_POINT ( 'NONE',  ( 12.50000000000000000, -2.164890140588744579E-15, -17.67766952966377758 ) ) ;
#125 = SECURITY_CLASSIFICATION_LEVEL ( 'unclassified' ) ;
#126 = AXIS2_PLACEMENT_3D ( 'NONE', #213, #159, #354 ) ;
#127 = APPROVAL_ROLE ( '' ) ;
#128 = MECHANICAL_CONTEXT ( 'NONE', #34, 'mechanical' ) ;
#129 = ORGANIZATION ( 'UNSPECIFIED', 'UNSPECIFIED', '' ) ;
#130 = APPROVAL_DATE_TIME ( #249, #140 ) ;
#131 = PERSON_AND_ORGANIZATION_ROLE ( 'classification_officer' ) ;
#132 = DIRECTION ( 'NONE',  ( 1.000000000000000000, 0.0000000000000000000, 0.0000000000000000000 ) ) ;
#133 = APPROVAL_STATUS ( 'not_yet_approved' ) ;
#134 = CARTESIAN_POINT ( 'NONE',  ( 12.50000000000000000, 0.0000000000000000000, 17.67766952966377758 ) ) ;
#135 = DIRECTION ( 'NONE',  ( -1.000000000000000000, 0.0000000000000000000, 0.0000000000000000000 ) ) ;
#136 = PERSON_AND_ORGANIZATION ( #279, #129 ) ;
#137 = DATE_AND_TIME ( #104, #204 ) ;
#138 = CALENDAR_DATE ( 2020, 21, 9 ) ;
#139 = PERSON_AND_ORGANIZATION ( #279, #129 ) ;
#140 = APPROVAL ( #133, 'UNSPECIFIED' ) ;
#141 = VECTOR ( 'NONE', #292, 1000.000000000000000 ) ;
#142 = DIRECTION ( 'NONE',  ( 1.000000000000000000, 0.0000000000000000000, 0.0000000000000000000 ) ) ;
#143 = CARTESIAN_POINT ( 'NONE',  ( 0.0000000000000000000, 0.0000000000000000000, 0.0000000000000000000 ) ) ;
#144 = ORIENTED_EDGE ( 'NONE', *, *, #332, .F. ) ;
#145 = APPROVAL_PERSON_ORGANIZATION ( #334, #230, #234 ) ;
#146 = DATE_TIME_ROLE ( 'creation_date' ) ;
#147 = ORIENTED_EDGE ( 'NONE', *, *, #167, .T. ) ;
#148 = DIRECTION ( 'NONE',  ( 0.0000000000000000000, 0.0000000000000000000, -1.000000000000000000 ) ) ;
#149 = APPLICATION_PROTOCOL_DEFINITION ( 'international standard', 'config_control_design', 1994, #174 ) ;
#150 = PERSON_AND_ORGANIZATION ( #279, #129 ) ;
#151 = APPROVAL_STATUS ( 'not_yet_approved' ) ;
#152 = MECHANICAL_CONTEXT ( 'NONE', #174, 'mechanical' ) ;
#153 = EDGE_LOOP ( 'NONE', ( #116, #309, #273, #22 ) ) ;
#154 = DIRECTION ( 'NONE',  ( 0.0000000000000000000, -0.7071067811865439090, -0.7071067811865512365 ) ) ;
#155 = LINE ( 'NONE', #297, #169 ) ;
#156 = CARTESIAN_POINT ( 'NONE',  ( 12.50000000000000000, -2.164890140588744579E-15, -17.67766952966377758 ) ) ;
#157 = APPROVAL_PERSON_ORGANIZATION ( #136, #299, #127 ) ;
#158 = DIRECTION ( 'NONE',  ( 0.0000000000000000000, 0.0000000000000000000, 1.000000000000000000 ) ) ;
#159 = DIRECTION ( 'NONE',  ( 0.0000000000000000000, 0.0000000000000000000, 1.000000000000000000 ) ) ;
#160 = CC_DESIGN_PERSON_AND_ORGANIZATION_ASSIGNMENT ( #200, #43, ( #222 ) ) ;
#161 = DATE_TIME_ROLE ( 'classification_date' ) ;
#162 = PERSON_AND_ORGANIZATION ( #279, #129 ) ;
#163 = PERSON_AND_ORGANIZATION ( #279, #129 ) ;
#164 = APPROVAL ( #69, 'UNSPECIFIED' ) ;
#165 = VECTOR ( 'NONE', #107, 1000.000000000000000 ) ;
#166 = LOCAL_TIME ( 9, 58, 3.000000000000000000, #303 ) ;
#167 = EDGE_CURVE ( 'NONE', #350, #89, #190, .T. ) ;
#168 = DIRECTION ( 'NONE',  ( 0.0000000000000000000, -6.123233995736767268E-17, -1.000000000000000000 ) ) ;
#169 = VECTOR ( 'NONE', #320, 1000.000000000000000 ) ;
#170 = CC_DESIGN_SECURITY_CLASSIFICATION ( #348, ( #45 ) ) ;
#171 = PERSON_AND_ORGANIZATION_ROLE ( 'creator' ) ;
#172 = FACE_OUTER_BOUND ( 'NONE', #236, .T. ) ;
#173 = DATE_AND_TIME ( #221, #27 ) ;
#174 = APPLICATION_CONTEXT ( 'configuration controlled 3d designs of mechanical parts and assemblies' ) ;
#175 = AXIS2_PLACEMENT_3D ( 'NONE', #255, #286, #142 ) ;
#176 = PERSON_AND_ORGANIZATION_ROLE ( 'design_supplier' ) ;
#177 = CARTESIAN_POINT ( 'NONE',  ( 12.50000000000000000, -2.164890140588744579E-15, -17.67766952966377758 ) ) ;
#178 = APPROVAL_ROLE ( '' ) ;
#179 = DIRECTION ( 'NONE',  ( 0.0000000000000000000, -6.123233995736767268E-17, -1.000000000000000000 ) ) ;
#180 = DESIGN_CONTEXT ( 'detailed design', #233, 'design' ) ;
#181 = LOCAL_TIME ( 9, 58, 3.000000000000000000, #329 ) ;
#182 = CC_DESIGN_DATE_AND_TIME_ASSIGNMENT ( #284, #161, ( #4 ) ) ;
#183 =( NAMED_UNIT ( * ) PLANE_ANGLE_UNIT ( ) SI_UNIT ( $, .RADIAN. ) );
#184 = CALENDAR_DATE ( 2020, 21, 9 ) ;
#185 = CARTESIAN_POINT ( 'NONE',  ( 12.50000000000000000, 17.67766952966358929, -1.112641391681767256E-15 ) ) ;
#186 = PERSON_AND_ORGANIZATION_ROLE ( 'classification_officer' ) ;
#187 = APPROVAL_DATE_TIME ( #173, #299 ) ;
#188 = LINE ( 'NONE', #330, #296 ) ;
#189 = EDGE_CURVE ( 'NONE', #118, #326, #155, .T. ) ;
#190 = LINE ( 'NONE', #134, #165 ) ;
#191 = PERSON_AND_ORGANIZATION ( #279, #129 ) ;
#192 = PERSON_AND_ORGANIZATION ( #312, #113 ) ;
#193 = APPROVAL_DATE_TIME ( #59, #1 ) ;
#194 = ADVANCED_FACE ( 'NONE', ( #32 ), #298, .F. ) ;
#195 = ADVANCED_FACE ( 'NONE', ( #277 ), #300, .F. ) ;
#196 = PRODUCT ( '25x25 Right Angle Prism Master', '25x25 Right Angle Prism Master', '', ( #128 ) ) ;
#197 =( NAMED_UNIT ( * ) PLANE_ANGLE_UNIT ( ) SI_UNIT ( $, .RADIAN. ) );
#198 = COORDINATED_UNIVERSAL_TIME_OFFSET ( 5, 0, .BEHIND. ) ;
#199 = CC_DESIGN_APPROVAL ( #164, ( #83 ) ) ;
#200 = PERSON_AND_ORGANIZATION ( #279, #129 ) ;
#201 = CALENDAR_DATE ( 2020, 21, 9 ) ;
#202 = DIRECTION ( 'NONE',  ( 0.0000000000000000000, 1.000000000000000000, -6.123233995736767268E-17 ) ) ;
#203 = CC_DESIGN_PERSON_AND_ORGANIZATION_ASSIGNMENT ( #192, #186, ( #4 ) ) ;
#204 = LOCAL_TIME ( 9, 58, 3.000000000000000000, #7 ) ;
#205 = FACE_OUTER_BOUND ( 'NONE', #310, .T. ) ;
#206 = PERSON_AND_ORGANIZATION ( #28, #11 ) ;
#207 = VECTOR ( 'NONE', #218, 999.9999999999998863 ) ;
#208 = LOCAL_TIME ( 9, 58, 3.000000000000000000, #220 ) ;
#209 = PLANE ( 'NONE',  #99 ) ;
#210 = PERSON_AND_ORGANIZATION_ROLE ( 'creator' ) ;
#211 = CARTESIAN_POINT ( 'NONE',  ( 12.50000000000000000, 17.67766952966358573, -3.469446951953614189E-15 ) ) ;
#212 = CC_DESIGN_PERSON_AND_ORGANIZATION_ASSIGNMENT ( #85, #15, ( #66 ) ) ;
#213 = CARTESIAN_POINT ( 'NONE',  ( 0.0000000000000000000, 0.0000000000000000000, 0.0000000000000000000 ) ) ;
#214 = DIRECTION ( 'NONE',  ( 0.0000000000000000000, -0.7071067811865512365, -0.7071067811865439090 ) ) ;
#215 = APPROVAL_STATUS ( 'not_yet_approved' ) ;
#216 = DATE_AND_TIME ( #2, #77 ) ;
#217 = PRODUCT_RELATED_PRODUCT_CATEGORY ( 'detail', '', ( #66 ) ) ;
#218 = DIRECTION ( 'NONE',  ( 0.0000000000000000000, -0.7071067811865439090, 0.7071067811865512365 ) ) ;
#219 = VECTOR ( 'NONE', #282, 1000.000000000000000 ) ;
#220 = COORDINATED_UNIVERSAL_TIME_OFFSET ( 5, 0, .BEHIND. ) ;
#221 = CALENDAR_DATE ( 2020, 21, 9 ) ;
#222 = SECURITY_CLASSIFICATION ( '', '', #346 ) ;
#223 = DATE_AND_TIME ( #343, #166 ) ;
#224 = ADVANCED_FACE ( 'NONE', ( #63 ), #105, .F. ) ;
#225 = ORIENTED_EDGE ( 'NONE', *, *, #3, .F. ) ;
#226 = CC_DESIGN_PERSON_AND_ORGANIZATION_ASSIGNMENT ( #26, #210, ( #275 ) ) ;
#227 = EDGE_CURVE ( 'NONE', #326, #44, #306, .T. ) ;
#228 = DATE_TIME_ROLE ( 'classification_date' ) ;
#229 = SECURITY_CLASSIFICATION_LEVEL ( 'unclassified' ) ;
#230 = APPROVAL ( #13, 'UNSPECIFIED' ) ;
#231 = SHAPE_DEFINITION_REPRESENTATION ( #29, #91 ) ;
#232 = CARTESIAN_POINT ( 'NONE',  ( -12.50000000000000000, 0.0000000000000000000, 17.67766952966377758 ) ) ;
#233 = APPLICATION_CONTEXT ( 'configuration controlled 3d designs of mechanical parts and assemblies' ) ;
#234 = APPROVAL_ROLE ( '' ) ;
#235 = ADVANCED_BREP_SHAPE_REPRESENTATION ( '', ( #321, #285 ), #16 ) ;
#236 = EDGE_LOOP ( 'NONE', ( #225, #49, #338 ) ) ;
#237 =( LENGTH_UNIT ( ) NAMED_UNIT ( * ) SI_UNIT ( .MILLI., .METRE. ) );
#238 = CARTESIAN_POINT ( 'NONE',  ( -12.50000000000000000, -2.164890140588744579E-15, -17.67766952966377758 ) ) ;
#239 = CARTESIAN_POINT ( 'NONE',  ( 12.50000000000000000, 0.0000000000000000000, 17.67766952966377758 ) ) ;
#240 = CC_DESIGN_SECURITY_CLASSIFICATION ( #76, ( #360 ) ) ;
#241 = CARTESIAN_POINT ( 'NONE',  ( -12.50000000000000000, 17.67766952966358573, -3.469446951953614189E-15 ) ) ;
#242 = EDGE_LOOP ( 'NONE', ( #304, #251, #288 ) ) ;
#243 = PERSON_AND_ORGANIZATION ( #279, #129 ) ;
#244 = APPROVAL_PERSON_ORGANIZATION ( #21, #140, #262 ) ;
#245 = DESIGN_CONTEXT ( 'detailed design', #101, 'design' ) ;
#246 = LINE ( 'NONE', #302, #301 ) ;
#247 = DATE_AND_TIME ( #39, #108 ) ;
#248 = DATE_AND_TIME ( #184, #50 ) ;
#249 = DATE_AND_TIME ( #269, #267 ) ;
#250 =( LENGTH_UNIT ( ) NAMED_UNIT ( * ) SI_UNIT ( .MILLI., .METRE. ) );
#251 = ORIENTED_EDGE ( 'NONE', *, *, #332, .T. ) ;
#252 = PRODUCT_RELATED_PRODUCT_CATEGORY ( 'detail', '', ( #196 ) ) ;
#253 = DATE_AND_TIME ( #328, #315 ) ;
#254 = ITEM_DEFINED_TRANSFORMATION ( 'NONE', 'NONE', #115,  #285 ) ;
#255 = CARTESIAN_POINT ( 'NONE',  ( 0.0000000000000000000, 0.0000000000000000000, 0.0000000000000000000 ) ) ;
#256 = CC_DESIGN_DATE_AND_TIME_ASSIGNMENT ( #223, #98, ( #222 ) ) ;
#257 = PERSON_AND_ORGANIZATION_ROLE ( 'design_supplier' ) ;
#258 = APPROVAL_ROLE ( '' ) ;
#259 = CC_DESIGN_APPROVAL ( #80, ( #4 ) ) ;
#260 = SECURITY_CLASSIFICATION_LEVEL ( 'unclassified' ) ;
#261 =( NAMED_UNIT ( * ) SI_UNIT ( $, .STERADIAN. ) SOLID_ANGLE_UNIT ( ) );
#262 = APPROVAL_ROLE ( '' ) ;
#263 = APPROVAL_PERSON_ORGANIZATION ( #162, #67, #17 ) ;
#264 = APPROVAL_DATE_TIME ( #65, #230 ) ;
#265 = DIRECTION ( 'NONE',  ( 1.000000000000000000, 0.0000000000000000000, 0.0000000000000000000 ) ) ;
#266 = CARTESIAN_POINT ( 'NONE',  ( 12.50000000000000000, 0.0000000000000000000, 17.67766952966377758 ) ) ;
#267 = LOCAL_TIME ( 9, 58, 3.000000000000000000, #40 ) ;
#268 = APPROVAL ( #151, 'UNKNOWN' ) ;
#269 = CALENDAR_DATE ( 2020, 21, 9 ) ;
#270 = CC_DESIGN_PERSON_AND_ORGANIZATION_ASSIGNMENT ( #206, #131, ( #76 ) ) ;
#271 = APPROVAL_DATE_TIME ( #53, #80 ) ;
#272 = VECTOR ( 'NONE', #179, 1000.000000000000000 ) ;
#273 = ORIENTED_EDGE ( 'NONE', *, *, #19, .F. ) ;
#274 = PERSON_AND_ORGANIZATION ( #279, #129 ) ;
#275 = PRODUCT_DEFINITION ( 'UNKNOWN', '', #83, #180 ) ;
#276 = ORIENTED_EDGE ( 'NONE', *, *, #189, .F. ) ;
#277 = FACE_OUTER_BOUND ( 'NONE', #355, .T. ) ;
#278 = PERSON_AND_ORGANIZATION ( #279, #129 ) ;
#279 = PERSON ( 'UNSPECIFIED', 'UNSPECIFIED', 'UNSPECIFIED', ('UNSPECIFIED'), ('UNSPECIFIED'), ('UNSPECIFIED') ) ;
#280 = DIRECTION ( 'NONE',  ( -1.000000000000000222, 0.0000000000000000000, 5.551115123125782702E-17 ) ) ;
#281 = CC_DESIGN_PERSON_AND_ORGANIZATION_ASSIGNMENT ( #139, #257, ( #83 ) ) ;
#282 = DIRECTION ( 'NONE',  ( -1.000000000000000000, -0.0000000000000000000, -0.0000000000000000000 ) ) ;
#283 = APPROVAL_PERSON_ORGANIZATION ( #12, #1, #287 ) ;
#284 = DATE_AND_TIME ( #201, #181 ) ;
#285 = AXIS2_PLACEMENT_3D ( 'NONE', #75, #294, #132 ) ;
#286 = DIRECTION ( 'NONE',  ( 0.0000000000000000000, 0.0000000000000000000, 1.000000000000000000 ) ) ;
#287 = APPROVAL_ROLE ( '' ) ;
#288 = ORIENTED_EDGE ( 'NONE', *, *, #88, .T. ) ;
#289 = CC_DESIGN_APPROVAL ( #268, ( #76 ) ) ;
#290 = LOCAL_TIME ( 9, 58, 3.000000000000000000, #74 ) ;
#291 = APPLICATION_PROTOCOL_DEFINITION ( 'international standard', 'config_control_design', 1994, #233 ) ;
#292 = DIRECTION ( 'NONE',  ( 0.0000000000000000000, 0.7071067811865439090, 0.7071067811865512365 ) ) ;
#293 = PERSON_AND_ORGANIZATION_ROLE ( 'classification_officer' ) ;
#294 = DIRECTION ( 'NONE',  ( 0.0000000000000000000, 0.0000000000000000000, 1.000000000000000000 ) ) ;
#295 = APPROVAL_STATUS ( 'not_yet_approved' ) ;
#296 = VECTOR ( 'NONE', #112, 999.9999999999998863 ) ;
#297 = CARTESIAN_POINT ( 'NONE',  ( 12.50000000000000000, -2.164890140588744579E-15, -17.67766952966377758 ) ) ;
#298 = PLANE ( 'NONE',  #340 ) ;
#299 = APPROVAL ( #295, 'UNSPECIFIED' ) ;
#300 = PLANE ( 'NONE',  #92 ) ;
#301 = VECTOR ( 'NONE', #168, 1000.000000000000000 ) ;
#302 = CARTESIAN_POINT ( 'NONE',  ( -12.50000000000000000, 0.0000000000000000000, 17.67766952966377758 ) ) ;
#303 = COORDINATED_UNIVERSAL_TIME_OFFSET ( 5, 0, .BEHIND. ) ;
#304 = ORIENTED_EDGE ( 'NONE', *, *, #19, .T. ) ;
#305 = APPROVAL_PERSON_ORGANIZATION ( #243, #164, #258 ) ;
#306 = LINE ( 'NONE', #238, #141 ) ;
#307 = CC_DESIGN_DATE_AND_TIME_ASSIGNMENT ( #216, #228, ( #76 ) ) ;
#308 = CC_DESIGN_SECURITY_CLASSIFICATION ( #222, ( #83 ) ) ;
#309 = ORIENTED_EDGE ( 'NONE', *, *, #167, .F. ) ;
#310 = EDGE_LOOP ( 'NONE', ( #71, #276, #144, #147 ) ) ;
#311 = LINE ( 'NONE', #55, #219 ) ;
#312 = PERSON ( 'NAUO-PER2', 'UNSPECIFIED', 'UNSPECIFIED', ('UNSPECIFIED'), ('UNSPECIFIED'), ('UNSPECIFIED') ) ;
#313 = CC_DESIGN_PERSON_AND_ORGANIZATION_ASSIGNMENT ( #274, #38, ( #196 ) ) ;
#314 = CLOSED_SHELL ( 'NONE', ( #224, #119, #195, #194, #337 ) ) ;
#315 = LOCAL_TIME ( 9, 58, 3.000000000000000000, #339 ) ;
#316 = UNCERTAINTY_MEASURE_WITH_UNIT (LENGTH_MEASURE( 1.000000000000000082E-05 ), #237, 'distance_accuracy_value', 'NONE');
#317 = LOCAL_TIME ( 9, 58, 3.000000000000000000, #123 ) ;
#318 = DATE_TIME_ROLE ( 'classification_date' ) ;
#319 = CALENDAR_DATE ( 2020, 21, 9 ) ;
#320 = DIRECTION ( 'NONE',  ( -1.000000000000000000, -0.0000000000000000000, -0.0000000000000000000 ) ) ;
#321 = MANIFOLD_SOLID_BREP ( 'Extrude1', #314 ) ;
#322 = DIRECTION ( 'NONE',  ( 0.0000000000000000000, 0.7071067811865439090, -0.7071067811865512365 ) ) ;
#323 = COORDINATED_UNIVERSAL_TIME_OFFSET ( 5, 0, .BEHIND. ) ;
#324 = APPROVAL_ROLE ( '' ) ;
#325 = CARTESIAN_POINT ( 'NONE',  ( -12.50000000000000000, 17.67766952966358929, -1.112641391681767256E-15 ) ) ;
#326 = VERTEX_POINT ( 'NONE', #48 ) ;
#327 = CC_DESIGN_APPROVAL ( #299, ( #342 ) ) ;
#328 = CALENDAR_DATE ( 2020, 21, 9 ) ;
#329 = COORDINATED_UNIVERSAL_TIME_OFFSET ( 5, 0, .BEHIND. ) ;
#330 = CARTESIAN_POINT ( 'NONE',  ( -12.50000000000000000, 17.67766952966358929, -1.112641391681767256E-15 ) ) ;
#331 = SHAPE_REPRESENTATION ( '25mm BEAMSPLITTER CUBE TS_13420', ( #175, #36, #115 ), #94 ) ;
#332 = EDGE_CURVE ( 'NONE', #350, #118, #73, .T. ) ;
#333 = CC_DESIGN_DATE_AND_TIME_ASSIGNMENT ( #52, #146, ( #342 ) ) ;
#334 = PERSON_AND_ORGANIZATION ( #279, #129 ) ;
#335 = APPROVAL_PERSON_ORGANIZATION ( #192, #80, #324 ) ;
#336 = ORIENTED_EDGE ( 'NONE', *, *, #227, .T. ) ;
#337 = ADVANCED_FACE ( 'NONE', ( #172 ), #47, .T. ) ;
#338 = ORIENTED_EDGE ( 'NONE', *, *, #51, .F. ) ;
#339 = COORDINATED_UNIVERSAL_TIME_OFFSET ( 5, 0, .BEHIND. ) ;
#340 = AXIS2_PLACEMENT_3D ( 'NONE', #211, #78, #356 ) ;
#341 = LOCAL_TIME ( 9, 58, 3.000000000000000000, #82 ) ;
#342 = PRODUCT_DEFINITION ( 'UNKNOWN', '', #45, #245 ) ;
#343 = CALENDAR_DATE ( 2020, 21, 9 ) ;
#344 = CARTESIAN_POINT ( 'NONE',  ( 12.50000000000000000, 0.0000000000000000000, 17.67766952966377758 ) ) ;
#345 = APPROVAL_STATUS ( 'not_yet_approved' ) ;
#346 = SECURITY_CLASSIFICATION_LEVEL ( 'unclassified' ) ;
#347 = APPROVAL_STATUS ( 'not_yet_approved' ) ;
#348 = SECURITY_CLASSIFICATION ( '', '', #260 ) ;
#349 = ORIENTED_EDGE ( 'NONE', *, *, #79, .F. ) ;
#350 = VERTEX_POINT ( 'NONE', #266 ) ;
#351 = CONTEXT_DEPENDENT_SHAPE_REPRESENTATION ( #100, #14 ) ;
#352 = APPROVAL_DATE_TIME ( #137, #164 ) ;
#353 = ITEM_DEFINED_TRANSFORMATION ( 'NONE', 'NONE', #36,  #285 ) ;
#354 = DIRECTION ( 'NONE',  ( 1.000000000000000000, 0.0000000000000000000, 0.0000000000000000000 ) ) ;
#355 = EDGE_LOOP ( 'NONE', ( #336, #349, #111, #30 ) ) ;
#356 = DIRECTION ( 'NONE',  ( 0.0000000000000000000, 0.0000000000000000000, 1.000000000000000000 ) ) ;
#357 = CC_DESIGN_APPROVAL ( #1, ( #45 ) ) ;
#358 = CARTESIAN_POINT ( 'NONE',  ( 12.50000000000000000, 17.67766952966358929, -1.112641391681767256E-15 ) ) ;
#359 = AXIS2_PLACEMENT_3D ( 'NONE', #185, #214, #322 ) ;
#360 = NEXT_ASSEMBLY_USAGE_OCCURRENCE ( 'NAUO1', ' ', ' ', #275, #342, $ ) ;
#361 = NEXT_ASSEMBLY_USAGE_OCCURRENCE ( 'NAUO2', ' ', ' ', #275, #342, $ ) ;
ENDSEC;
END-ISO-10303-21;
