ISO-10303-21;
HEADER;
FILE_DESCRIPTION (( 'STEP AP203' ),
    '1' );
FILE_NAME ('5438-E0W.STEP',
    '2015-02-24T16:45:52',
    ( 'Admin' ),
    ( '' ),
    'SwSTEP 2.0',
    'SolidWorks 2014',
    '' );
FILE_SCHEMA (( 'CONFIG_CONTROL_DESIGN' ));
ENDSEC;

DATA;
#1 = AXIS2_PLACEMENT_3D ( 'NONE', #23, #278, #47 ) ;
#2 = ORIENTED_EDGE ( 'NONE', *, *, #223, .T. ) ;
#3 = CARTESIAN_POINT ( 'NONE',  ( 6.208578643762692200, 7.689911568962142300E-016, 3.288580505604781200 ) ) ;
#4 = CIRCLE ( 'NONE', #201, 6.349999999999997900 ) ;
#5 = DATE_AND_TIME ( #46, #25 ) ;
#6 = ADVANCED_FACE ( 'NONE', ( #183 ), #256, .F. ) ;
#7 = CALENDAR_DATE ( 2015, 24, 2 ) ;
#8 = PRODUCT ( '5438-E0W', '5438-E0W', '', ( #74 ) ) ;
#9 = DIRECTION ( 'NONE',  ( -0.0000000000000000000, -0.0000000000000000000, 1.000000000000000000 ) ) ;
#10 = FACE_OUTER_BOUND ( 'NONE', #304, .T. ) ;
#11 = ORIENTED_EDGE ( 'NONE', *, *, #305, .F. ) ;
#12 = ADVANCED_FACE ( 'NONE', ( #168 ), #234, .T. ) ;
#13 = APPROVAL_ROLE ( '' ) ;
#14 = CONICAL_SURFACE ( 'NONE', #241, 6.349999999999997900, 0.7853981633974329600 ) ;
#15 = CARTESIAN_POINT ( 'NONE',  ( 0.0000000000000000000, 6.208578643762690400, 3.288580505604780300 ) ) ;
#16 = APPLICATION_PROTOCOL_DEFINITION ( 'international standard', 'config_control_design', 1994, #221 ) ;
#17 = SHAPE_DEFINITION_REPRESENTATION ( #264, #143 ) ;
#18 = PRODUCT_DEFINITION_FORMATION_WITH_SPECIFIED_SOURCE ( 'ANY', '', #8, .NOT_KNOWN. ) ;
#19 = CARTESIAN_POINT ( 'NONE',  ( -6.349999999999997900, 0.0000000000000000000, 3.147159149367470700 ) ) ;
#20 = ORIENTED_EDGE ( 'NONE', *, *, #223, .F. ) ;
#21 = VECTOR ( 'NONE', #85, 999.9999999999998900 ) ;
#22 = LINE ( 'NONE', #216, #160 ) ;
#23 = CARTESIAN_POINT ( 'NONE',  ( 0.0000000000000000000, 0.0000000000000000000, -1.499999999999999600 ) ) ;
#24 = EDGE_LOOP ( 'NONE', ( #310, #48, #224, #246, #220 ) ) ;
#25 = LOCAL_TIME ( 11, 45, 52.00000000000000000, #37 ) ;
#26 = APPROVAL_PERSON_ORGANIZATION ( #93, #293, #43 ) ;
#27 = CARTESIAN_POINT ( 'NONE',  ( 6.349999999999997900, 0.0000000000000000000, 3.147159149367470700 ) ) ;
#28 = AXIS2_PLACEMENT_3D ( 'NONE', #164, #9, #54 ) ;
#29 = DIRECTION ( 'NONE',  ( 1.000000000000000000, 0.0000000000000000000, 0.0000000000000000000 ) ) ;
#30 = DIRECTION ( 'NONE',  ( -0.0000000000000000000, -0.0000000000000000000, 1.000000000000000000 ) ) ;
#31 = VERTEX_POINT ( 'NONE', #27 ) ;
#32 = EDGE_CURVE ( 'NONE', #102, #31, #284, .T. ) ;
#33 = DATE_AND_TIME ( #118, #215 ) ;
#34 = DIRECTION ( 'NONE',  ( 1.000000000000000000, 0.0000000000000000000, 0.0000000000000000000 ) ) ;
#35 = DIRECTION ( 'NONE',  ( -1.000000000000000000, 0.0000000000000000000, 0.0000000000000000000 ) ) ;
#36 = CARTESIAN_POINT ( 'NONE',  ( 0.0000000000000000000, 0.0000000000000000000, 3.147159149367470700 ) ) ;
#37 = COORDINATED_UNIVERSAL_TIME_OFFSET ( 5, 0, .BEHIND. ) ;
#38 = MANIFOLD_SOLID_BREP ( '5438-001-2-solid1', #208 ) ;
#39 = EDGE_LOOP ( 'NONE', ( #20, #92, #287, #210 ) ) ;
#40 = AXIS2_PLACEMENT_3D ( 'NONE', #137, #101, #119 ) ;
#41 = ORIENTED_EDGE ( 'NONE', *, *, #249, .T. ) ;
#42 = EDGE_CURVE ( 'NONE', #173, #129, #226, .T. ) ;
#43 = APPROVAL_ROLE ( '' ) ;
#44 = CIRCLE ( 'NONE', #114, 11.67000000000000000 ) ;
#45 = DIRECTION ( 'NONE',  ( -0.0000000000000000000, -0.0000000000000000000, 1.000000000000000000 ) ) ;
#46 = CALENDAR_DATE ( 2015, 24, 2 ) ;
#47 = DIRECTION ( 'NONE',  ( 1.000000000000000000, 0.0000000000000000000, 0.0000000000000000000 ) ) ;
#48 = ORIENTED_EDGE ( 'NONE', *, *, #32, .T. ) ;
#49 = APPROVAL ( #50, 'UNSPECIFIED' ) ;
#50 = APPROVAL_STATUS ( 'not_yet_approved' ) ;
#51 = APPLICATION_PROTOCOL_DEFINITION ( 'international standard', 'config_control_design', 1994, #203 ) ;
#52 = LOCAL_TIME ( 11, 45, 52.00000000000000000, #133 ) ;
#53 = CC_DESIGN_APPROVAL ( #293, ( #18 ) ) ;
#54 = DIRECTION ( 'NONE',  ( 1.000000000000000000, 0.0000000000000000000, 0.0000000000000000000 ) ) ;
#55 = EDGE_LOOP ( 'NONE', ( #188, #297, #289, #120 ) ) ;
#56 = ORIENTED_EDGE ( 'NONE', *, *, #83, .F. ) ;
#57 = CARTESIAN_POINT ( 'NONE',  ( 0.0000000000000000000, 0.0000000000000000000, 3.288580505604781200 ) ) ;
#58 = EDGE_CURVE ( 'NONE', #110, #312, #22, .T. ) ;
#59 = CARTESIAN_POINT ( 'NONE',  ( 6.208578643762691300, 0.0000000000000000000, -1.499999999999999600 ) ) ;
#60 = EDGE_LOOP ( 'NONE', ( #277, #291, #11, #97 ) ) ;
#61 = DIRECTION ( 'NONE',  ( 1.000000000000000000, 0.0000000000000000000, 0.0000000000000000000 ) ) ;
#62 = DIRECTION ( 'NONE',  ( -0.0000000000000000000, -0.0000000000000000000, 1.000000000000000000 ) ) ;
#63 = ORIENTED_EDGE ( 'NONE', *, *, #42, .T. ) ;
#64 = EDGE_CURVE ( 'NONE', #129, #312, #176, .T. ) ;
#65 = CARTESIAN_POINT ( 'NONE',  ( 0.0000000000000000000, 5.510910596163088600E-016, -1.500000000000000000 ) ) ;
#66 = CIRCLE ( 'NONE', #227, 6.208578643762691300 ) ;
#67 = PERSON_AND_ORGANIZATION_ROLE ( 'classification_officer' ) ;
#68 = DESIGN_CONTEXT ( 'detailed design', #221, 'design' ) ;
#69 = DIRECTION ( 'NONE',  ( -0.0000000000000000000, -0.0000000000000000000, 1.000000000000000000 ) ) ;
#70 = CARTESIAN_POINT ( 'NONE',  ( -6.349999999999999600, 7.776507174585692200E-016, 9.017153270429325600 ) ) ;
#71 = CARTESIAN_POINT ( 'NONE',  ( 0.0000000000000000000, 0.0000000000000000000, 3.288580505604781200 ) ) ;
#72 = VERTEX_POINT ( 'NONE', #262 ) ;
#73 = APPROVAL_STATUS ( 'not_yet_approved' ) ;
#74 = MECHANICAL_CONTEXT ( 'NONE', #203, 'mechanical' ) ;
#75 = CC_DESIGN_PERSON_AND_ORGANIZATION_ASSIGNMENT ( #253, #222, ( #18 ) ) ;
#76 = CARTESIAN_POINT ( 'NONE',  ( 0.0000000000000000000, 0.0000000000000000000, 0.0000000000000000000 ) ) ;
#77 = ORIENTED_EDGE ( 'NONE', *, *, #199, .F. ) ;
#78 = ADVANCED_FACE ( 'NONE', ( #171 ), #144, .T. ) ;
#79 = EDGE_LOOP ( 'NONE', ( #139, #63, #242, #146 ) ) ;
#80 = PERSON_AND_ORGANIZATION ( #157, #275 ) ;
#81 = CARTESIAN_POINT ( 'NONE',  ( -6.208578643762691300, 7.689911568962144300E-016, -1.499999999999999600 ) ) ;
#82 = EDGE_LOOP ( 'NONE', ( #260, #2, #279, #212 ) ) ;
#83 = EDGE_CURVE ( 'NONE', #273, #102, #231, .T. ) ;
#84 = CONICAL_SURFACE ( 'NONE', #131, 6.208578643762691300, 0.7853981633974545000 ) ;
#85 = DIRECTION ( 'NONE',  ( -0.7071067811865366900, 0.0000000000000000000, -0.7071067811865584500 ) ) ;
#86 = CARTESIAN_POINT ( 'NONE',  ( 0.0000000000000000000, 0.0000000000000000000, 3.147159149367470700 ) ) ;
#87 = ORIENTED_EDGE ( 'NONE', *, *, #165, .F. ) ;
#88 = PERSON_AND_ORGANIZATION ( #157, #275 ) ;
#89 = LOCAL_TIME ( 11, 45, 52.00000000000000000, #295 ) ;
#90 = PRODUCT_RELATED_PRODUCT_CATEGORY ( 'detail', '', ( #8 ) ) ;
#91 = CARTESIAN_POINT ( 'NONE',  ( 0.0000000000000000000, 0.0000000000000000000, 13.17000000000000000 ) ) ;
#92 = ORIENTED_EDGE ( 'NONE', *, *, #229, .T. ) ;
#93 = PERSON_AND_ORGANIZATION ( #157, #275 ) ;
#94 = ADVANCED_FACE ( 'NONE', ( #209 ), #217, .F. ) ;
#95 = CARTESIAN_POINT ( 'NONE',  ( 0.0000000000000000000, 0.0000000000000000000, -1.499999999999999600 ) ) ;
#96 = AXIS2_PLACEMENT_3D ( 'NONE', #169, #194, #103 ) ;
#97 = ORIENTED_EDGE ( 'NONE', *, *, #280, .F. ) ;
#98 = ADVANCED_FACE ( 'NONE', ( #202 ), #14, .T. ) ;
#99 = CONICAL_SURFACE ( 'NONE', #270, 6.208578643762691300, 0.7853981633974545000 ) ;
#100 = SECURITY_CLASSIFICATION ( '', '', #112 ) ;
#101 = DIRECTION ( 'NONE',  ( -0.0000000000000000000, -0.0000000000000000000, 1.000000000000000000 ) ) ;
#102 = VERTEX_POINT ( 'NONE', #3 ) ;
#103 = DIRECTION ( 'NONE',  ( 1.000000000000000000, 0.0000000000000000000, 0.0000000000000000000 ) ) ;
#104 = CC_DESIGN_PERSON_AND_ORGANIZATION_ASSIGNMENT ( #189, #148, ( #18 ) ) ;
#105 = AXIS2_PLACEMENT_3D ( 'NONE', #288, #34, #106 ) ;
#106 = DIRECTION ( 'NONE',  ( 0.0000000000000000000, 0.0000000000000000000, -1.000000000000000000 ) ) ;
#107 = AXIS2_PLACEMENT_3D ( 'NONE', #196, #321, #301 ) ;
#108 = COORDINATED_UNIVERSAL_TIME_OFFSET ( 5, 0, .BEHIND. ) ;
#109 = CARTESIAN_POINT ( 'NONE',  ( 0.0000000000000000000, 7.145814073024805800E-016, 1.499999999999999600 ) ) ;
#110 = VERTEX_POINT ( 'NONE', #59 ) ;
#111 = EDGE_CURVE ( 'NONE', #173, #110, #66, .T. ) ;
#112 = SECURITY_CLASSIFICATION_LEVEL ( 'unclassified' ) ;
#113 = DIRECTION ( 'NONE',  ( 0.0000000000000000000, 1.000000000000000000, 0.0000000000000000000 ) ) ;
#114 = AXIS2_PLACEMENT_3D ( 'NONE', #91, #285, #307 ) ;
#115 = DIRECTION ( 'NONE',  ( -1.000000000000000000, 0.0000000000000000000, 0.0000000000000000000 ) ) ;
#116 = CARTESIAN_POINT ( 'NONE',  ( -6.350000000000000500, 7.776507174585693100E-016, -1.358578643762691700 ) ) ;
#117 = AXIS2_PLACEMENT_3D ( 'NONE', #317, #313, #186 ) ;
#118 = CALENDAR_DATE ( 2015, 24, 2 ) ;
#119 = DIRECTION ( 'NONE',  ( 1.000000000000000000, 0.0000000000000000000, 0.0000000000000000000 ) ) ;
#120 = ORIENTED_EDGE ( 'NONE', *, *, #249, .F. ) ;
#121 = DATE_TIME_ROLE ( 'creation_date' ) ;
#122 = ADVANCED_FACE ( 'NONE', ( #258 ), #99, .T. ) ;
#123 = CIRCLE ( 'NONE', #105, 11.67000000000000000 ) ;
#124 = DIRECTION ( 'NONE',  ( -1.000000000000000000, 0.0000000000000000000, 0.0000000000000000000 ) ) ;
#125 =( NAMED_UNIT ( * ) PLANE_ANGLE_UNIT ( ) SI_UNIT ( $, .RADIAN. ) );
#126 = AXIS2_PLACEMENT_3D ( 'NONE', #36, #45, #319 ) ;
#127 = VECTOR ( 'NONE', #132, 999.9999999999998900 ) ;
#128 = APPROVAL_PERSON_ORGANIZATION ( #282, #318, #213 ) ;
#129 = VERTEX_POINT ( 'NONE', #116 ) ;
#130 = CC_DESIGN_PERSON_AND_ORGANIZATION_ASSIGNMENT ( #230, #197, ( #316 ) ) ;
#131 = AXIS2_PLACEMENT_3D ( 'NONE', #294, #240, #179 ) ;
#132 = DIRECTION ( 'NONE',  ( 0.7071067811865366900, 8.659560562354801000E-017, -0.7071067811865584500 ) ) ;
#133 = COORDINATED_UNIVERSAL_TIME_OFFSET ( 5, 0, .BEHIND. ) ;
#134 = LINE ( 'NONE', #70, #303 ) ;
#135 = VERTEX_POINT ( 'NONE', #259 ) ;
#136 = CARTESIAN_POINT ( 'NONE',  ( 0.0000000000000000000, 0.0000000000000000000, 3.147159149367470700 ) ) ;
#137 = CARTESIAN_POINT ( 'NONE',  ( 0.0000000000000000000, 0.0000000000000000000, -1.358578643762691700 ) ) ;
#138 = EDGE_CURVE ( 'NONE', #129, #135, #134, .T. ) ;
#139 = ORIENTED_EDGE ( 'NONE', *, *, #165, .T. ) ;
#140 = EDGE_CURVE ( 'NONE', #296, #72, #281, .T. ) ;
#141 = APPROVAL_DATE_TIME ( #178, #318 ) ;
#142 = SPHERICAL_SURFACE ( 'NONE', #158, 11.67000000000000000 ) ;
#143 = ADVANCED_BREP_SHAPE_REPRESENTATION ( '5438-E0W', ( #38, #192 ), #161 ) ;
#144 = CYLINDRICAL_SURFACE ( 'NONE', #117, 6.349999999999999600 ) ;
#145 = CALENDAR_DATE ( 2015, 24, 2 ) ;
#146 = ORIENTED_EDGE ( 'NONE', *, *, #58, .F. ) ;
#147 = EDGE_CURVE ( 'NONE', #102, #296, #149, .T. ) ;
#148 = PERSON_AND_ORGANIZATION_ROLE ( 'design_supplier' ) ;
#149 = CIRCLE ( 'NONE', #235, 6.208578643762692200 ) ;
#150 = AXIS2_PLACEMENT_3D ( 'NONE', #225, #214, #115 ) ;
#151 = VECTOR ( 'NONE', #257, 1000.000000000000000 ) ;
#152 = CC_DESIGN_APPROVAL ( #318, ( #100 ) ) ;
#153 = ORIENTED_EDGE ( 'NONE', *, *, #42, .F. ) ;
#154 = DATE_AND_TIME ( #7, #190 ) ;
#155 =( LENGTH_UNIT ( ) NAMED_UNIT ( * ) SI_UNIT ( .MILLI., .METRE. ) );
#156 = CC_DESIGN_PERSON_AND_ORGANIZATION_ASSIGNMENT ( #88, #67, ( #100 ) ) ;
#157 = PERSON ( 'UNSPECIFIED', 'UNSPECIFIED', 'UNSPECIFIED', ('UNSPECIFIED'), ('UNSPECIFIED'), ('UNSPECIFIED') ) ;
#158 = AXIS2_PLACEMENT_3D ( 'NONE', #315, #245, #159 ) ;
#159 = DIRECTION ( 'NONE',  ( 0.0000000000000000000, 1.000000000000000000, 0.0000000000000000000 ) ) ;
#160 = VECTOR ( 'NONE', #167, 1000.000000000000000 ) ;
#161 =( GEOMETRIC_REPRESENTATION_CONTEXT ( 3 ) GLOBAL_UNCERTAINTY_ASSIGNED_CONTEXT ( ( #166 ) ) GLOBAL_UNIT_ASSIGNED_CONTEXT ( ( #155, #125, #300 ) ) REPRESENTATION_CONTEXT ( 'NONE', 'WORKASPACE' ) );
#162 = CC_DESIGN_SECURITY_CLASSIFICATION ( #100, ( #18 ) ) ;
#163 = ORIENTED_EDGE ( 'NONE', *, *, #58, .T. ) ;
#164 = CARTESIAN_POINT ( 'NONE',  ( 0.0000000000000000000, 0.0000000000000000000, 3.288580505604781200 ) ) ;
#165 = EDGE_CURVE ( 'NONE', #110, #173, #254, .T. ) ;
#166 = UNCERTAINTY_MEASURE_WITH_UNIT (LENGTH_MEASURE( 1.000000000000000100E-005 ), #155, 'distance_accuracy_value', 'NONE');
#167 = DIRECTION ( 'NONE',  ( 0.7071067811865519000, 0.0000000000000000000, 0.7071067811865431300 ) ) ;
#168 = FACE_OUTER_BOUND ( 'NONE', #60, .T. ) ;
#169 = CARTESIAN_POINT ( 'NONE',  ( 0.0000000000000000000, 0.0000000000000000000, 9.017153270429325600 ) ) ;
#170 = FACE_OUTER_BOUND ( 'NONE', #39, .T. ) ;
#171 = FACE_OUTER_BOUND ( 'NONE', #55, .T. ) ;
#172 = DIRECTION ( 'NONE',  ( -0.0000000000000000000, -0.0000000000000000000, 1.000000000000000000 ) ) ;
#173 = VERTEX_POINT ( 'NONE', #81 ) ;
#174 = CARTESIAN_POINT ( 'NONE',  ( 0.0000000000000000000, 0.0000000000000000000, 13.17000000000000000 ) ) ;
#175 = EDGE_LOOP ( 'NONE', ( #204, #56, #77, #251, #41 ) ) ;
#176 = CIRCLE ( 'NONE', #107, 6.350000000000000500 ) ;
#177 = DIRECTION ( 'NONE',  ( -0.0000000000000000000, -0.0000000000000000000, 1.000000000000000000 ) ) ;
#178 = DATE_AND_TIME ( #145, #52 ) ;
#179 = DIRECTION ( 'NONE',  ( 1.000000000000000000, 0.0000000000000000000, 0.0000000000000000000 ) ) ;
#180 = DIRECTION ( 'NONE',  ( -0.0000000000000000000, -0.0000000000000000000, 1.000000000000000000 ) ) ;
#181 = VECTOR ( 'NONE', #69, 1000.000000000000000 ) ;
#182 = CARTESIAN_POINT ( 'NONE',  ( 6.349999999999999600, 0.0000000000000000000, 9.017153270429325600 ) ) ;
#183 = FACE_OUTER_BOUND ( 'NONE', #237, .T. ) ;
#184 = DIRECTION ( 'NONE',  ( 1.000000000000000000, 0.0000000000000000000, 0.0000000000000000000 ) ) ;
#185 = AXIS2_PLACEMENT_3D ( 'NONE', #308, #180, #292 ) ;
#186 = DIRECTION ( 'NONE',  ( 1.000000000000000000, 0.0000000000000000000, 0.0000000000000000000 ) ) ;
#187 = DIRECTION ( 'NONE',  ( 1.000000000000000000, 0.0000000000000000000, 0.0000000000000000000 ) ) ;
#188 = ORIENTED_EDGE ( 'NONE', *, *, #138, .F. ) ;
#189 = PERSON_AND_ORGANIZATION ( #157, #275 ) ;
#190 = LOCAL_TIME ( 11, 45, 52.00000000000000000, #320 ) ;
#191 = LINE ( 'NONE', #182, #181 ) ;
#192 = AXIS2_PLACEMENT_3D ( 'NONE', #76, #207, #266 ) ;
#193 = AXIS2_PLACEMENT_3D ( 'NONE', #174, #124, #113 ) ;
#194 = DIRECTION ( 'NONE',  ( -0.0000000000000000000, -0.0000000000000000000, 1.000000000000000000 ) ) ;
#195 = ORIENTED_EDGE ( 'NONE', *, *, #64, .F. ) ;
#196 = CARTESIAN_POINT ( 'NONE',  ( 0.0000000000000000000, 0.0000000000000000000, -1.358578643762691700 ) ) ;
#197 = PERSON_AND_ORGANIZATION_ROLE ( 'creator' ) ;
#198 = EDGE_CURVE ( 'NONE', #72, #135, #219, .T. ) ;
#199 = EDGE_CURVE ( 'NONE', #72, #273, #306, .T. ) ;
#200 = CARTESIAN_POINT ( 'NONE',  ( 6.350000000000000500, 0.0000000000000000000, -1.358578643762691700 ) ) ;
#201 = AXIS2_PLACEMENT_3D ( 'NONE', #86, #62, #255 ) ;
#202 = FACE_OUTER_BOUND ( 'NONE', #24, .T. ) ;
#203 = APPLICATION_CONTEXT ( 'configuration controlled 3d designs of mechanical parts and assemblies' ) ;
#204 = ORIENTED_EDGE ( 'NONE', *, *, #32, .F. ) ;
#205 = EDGE_CURVE ( 'NONE', #312, #129, #206, .T. ) ;
#206 = CIRCLE ( 'NONE', #40, 6.350000000000000500 ) ;
#207 = DIRECTION ( 'NONE',  ( 0.0000000000000000000, 0.0000000000000000000, 1.000000000000000000 ) ) ;
#208 = CLOSED_SHELL ( 'NONE', ( #98, #12, #122, #299, #94, #6, #252, #78, #274 ) ) ;
#209 = FACE_OUTER_BOUND ( 'NONE', #82, .T. ) ;
#210 = ORIENTED_EDGE ( 'NONE', *, *, #147, .T. ) ;
#211 = CARTESIAN_POINT ( 'NONE',  ( -7.603315963338594400E-016, -6.208578643762690400, 3.288580505604780300 ) ) ;
#212 = ORIENTED_EDGE ( 'NONE', *, *, #199, .T. ) ;
#213 = APPROVAL_ROLE ( '' ) ;
#214 = DIRECTION ( 'NONE',  ( 0.0000000000000000000, 0.0000000000000000000, -1.000000000000000000 ) ) ;
#215 = LOCAL_TIME ( 11, 45, 52.00000000000000000, #108 ) ;
#216 = CARTESIAN_POINT ( 'NONE',  ( 6.208578643762691300, 0.0000000000000000000, -1.499999999999999600 ) ) ;
#217 = SPHERICAL_SURFACE ( 'NONE', #193, 11.67000000000000000 ) ;
#218 = PERSON_AND_ORGANIZATION_ROLE ( 'design_owner' ) ;
#219 = LINE ( 'NONE', #19, #21 ) ;
#220 = ORIENTED_EDGE ( 'NONE', *, *, #140, .F. ) ;
#221 = APPLICATION_CONTEXT ( 'configuration controlled 3d designs of mechanical parts and assemblies' ) ;
#222 = PERSON_AND_ORGANIZATION_ROLE ( 'creator' ) ;
#223 = EDGE_CURVE ( 'NONE', #271, #296, #123, .T. ) ;
#224 = ORIENTED_EDGE ( 'NONE', *, *, #305, .T. ) ;
#225 = CARTESIAN_POINT ( 'NONE',  ( 0.0000000000000000000, 0.0000000000000000000, 3.147159149367470700 ) ) ;
#226 = LINE ( 'NONE', #267, #151 ) ;
#227 = AXIS2_PLACEMENT_3D ( 'NONE', #95, #177, #29 ) ;
#228 = ORIENTED_EDGE ( 'NONE', *, *, #111, .F. ) ;
#229 = EDGE_CURVE ( 'NONE', #271, #273, #44, .T. ) ;
#230 = PERSON_AND_ORGANIZATION ( #157, #275 ) ;
#231 = CIRCLE ( 'NONE', #185, 6.208578643762692200 ) ;
#232 = CIRCLE ( 'NONE', #126, 6.349999999999997900 ) ;
#233 = DIRECTION ( 'NONE',  ( 0.0000000000000000000, 0.0000000000000000000, -1.000000000000000000 ) ) ;
#234 = CYLINDRICAL_SURFACE ( 'NONE', #96, 6.349999999999999600 ) ;
#235 = AXIS2_PLACEMENT_3D ( 'NONE', #57, #172, #187 ) ;
#236 = CARTESIAN_POINT ( 'NONE',  ( 0.0000000000000000000, 0.0000000000000000000, -1.499999999999999600 ) ) ;
#237 = EDGE_LOOP ( 'NONE', ( #87, #228 ) ) ;
#238 = ORIENTED_EDGE ( 'NONE', *, *, #111, .T. ) ;
#239 = CC_DESIGN_DATE_AND_TIME_ASSIGNMENT ( #154, #121, ( #316 ) ) ;
#240 = DIRECTION ( 'NONE',  ( -0.0000000000000000000, -0.0000000000000000000, 1.000000000000000000 ) ) ;
#241 = AXIS2_PLACEMENT_3D ( 'NONE', #136, #233, #35 ) ;
#242 = ORIENTED_EDGE ( 'NONE', *, *, #205, .F. ) ;
#243 = AXIS2_PLACEMENT_3D ( 'NONE', #65, #244, #247 ) ;
#244 = DIRECTION ( 'NONE',  ( 0.0000000000000000000, -0.0000000000000000000, 1.000000000000000000 ) ) ;
#245 = DIRECTION ( 'NONE',  ( -1.000000000000000000, 0.0000000000000000000, 0.0000000000000000000 ) ) ;
#246 = ORIENTED_EDGE ( 'NONE', *, *, #198, .F. ) ;
#247 = DIRECTION ( 'NONE',  ( 1.000000000000000000, 0.0000000000000000000, 0.0000000000000000000 ) ) ;
#248 = APPROVAL_STATUS ( 'not_yet_approved' ) ;
#249 = EDGE_CURVE ( 'NONE', #135, #31, #232, .T. ) ;
#250 = AXIS2_PLACEMENT_3D ( 'NONE', #71, #269, #61 ) ;
#251 = ORIENTED_EDGE ( 'NONE', *, *, #198, .T. ) ;
#252 = ADVANCED_FACE ( 'NONE', ( #10 ), #84, .T. ) ;
#253 = PERSON_AND_ORGANIZATION ( #157, #275 ) ;
#254 = CIRCLE ( 'NONE', #1, 6.208578643762691300 ) ;
#255 = DIRECTION ( 'NONE',  ( 1.000000000000000000, 0.0000000000000000000, 0.0000000000000000000 ) ) ;
#256 = PLANE ( 'NONE',  #243 ) ;
#257 = DIRECTION ( 'NONE',  ( -0.7071067811865519000, 8.659560562354987100E-017, 0.7071067811865431300 ) ) ;
#258 = FACE_OUTER_BOUND ( 'NONE', #79, .T. ) ;
#259 = CARTESIAN_POINT ( 'NONE',  ( -6.349999999999997900, 7.776507174585691200E-016, 3.147159149367470700 ) ) ;
#260 = ORIENTED_EDGE ( 'NONE', *, *, #229, .F. ) ;
#261 = APPROVAL_DATE_TIME ( #298, #49 ) ;
#262 = CARTESIAN_POINT ( 'NONE',  ( -6.208578643762692200, 0.0000000000000000000, 3.288580505604781200 ) ) ;
#263 = CC_DESIGN_PERSON_AND_ORGANIZATION_ASSIGNMENT ( #268, #218, ( #8 ) ) ;
#264 = PRODUCT_DEFINITION_SHAPE ( 'NONE', 'NONE',  #316 ) ;
#265 = CC_DESIGN_DATE_AND_TIME_ASSIGNMENT ( #33, #314, ( #100 ) ) ;
#266 = DIRECTION ( 'NONE',  ( 1.000000000000000000, 0.0000000000000000000, 0.0000000000000000000 ) ) ;
#267 = CARTESIAN_POINT ( 'NONE',  ( -6.208578643762691300, 7.603315963338594400E-016, -1.499999999999999600 ) ) ;
#268 = PERSON_AND_ORGANIZATION ( #157, #275 ) ;
#269 = DIRECTION ( 'NONE',  ( -0.0000000000000000000, -0.0000000000000000000, 1.000000000000000000 ) ) ;
#270 = AXIS2_PLACEMENT_3D ( 'NONE', #236, #276, #184 ) ;
#271 = VERTEX_POINT ( 'NONE', #109 ) ;
#272 = CARTESIAN_POINT ( 'NONE',  ( 6.349999999999997900, 7.776507174585690200E-016, 3.147159149367470700 ) ) ;
#273 = VERTEX_POINT ( 'NONE', #211 ) ;
#274 = ADVANCED_FACE ( 'NONE', ( #311 ), #283, .T. ) ;
#275 = ORGANIZATION ( 'UNSPECIFIED', 'UNSPECIFIED', '' ) ;
#276 = DIRECTION ( 'NONE',  ( -0.0000000000000000000, -0.0000000000000000000, 1.000000000000000000 ) ) ;
#277 = ORIENTED_EDGE ( 'NONE', *, *, #205, .T. ) ;
#278 = DIRECTION ( 'NONE',  ( -0.0000000000000000000, -0.0000000000000000000, 1.000000000000000000 ) ) ;
#279 = ORIENTED_EDGE ( 'NONE', *, *, #140, .T. ) ;
#280 = EDGE_CURVE ( 'NONE', #312, #31, #191, .T. ) ;
#281 = CIRCLE ( 'NONE', #250, 6.208578643762692200 ) ;
#282 = PERSON_AND_ORGANIZATION ( #157, #275 ) ;
#283 = CONICAL_SURFACE ( 'NONE', #150, 6.349999999999997900, 0.7853981633974329600 ) ;
#284 = LINE ( 'NONE', #272, #127 ) ;
#285 = DIRECTION ( 'NONE',  ( -1.000000000000000000, 1.224646799147353200E-016, 0.0000000000000000000 ) ) ;
#286 = APPROVAL_PERSON_ORGANIZATION ( #80, #49, #13 ) ;
#287 = ORIENTED_EDGE ( 'NONE', *, *, #83, .T. ) ;
#288 = CARTESIAN_POINT ( 'NONE',  ( 0.0000000000000000000, 0.0000000000000000000, 13.17000000000000000 ) ) ;
#289 = ORIENTED_EDGE ( 'NONE', *, *, #280, .T. ) ;
#290 = APPROVAL_DATE_TIME ( #5, #293 ) ;
#291 = ORIENTED_EDGE ( 'NONE', *, *, #138, .T. ) ;
#292 = DIRECTION ( 'NONE',  ( 1.000000000000000000, 0.0000000000000000000, 0.0000000000000000000 ) ) ;
#293 = APPROVAL ( #73, 'UNSPECIFIED' ) ;
#294 = CARTESIAN_POINT ( 'NONE',  ( 0.0000000000000000000, 0.0000000000000000000, -1.499999999999999600 ) ) ;
#295 = COORDINATED_UNIVERSAL_TIME_OFFSET ( 5, 0, .BEHIND. ) ;
#296 = VERTEX_POINT ( 'NONE', #15 ) ;
#297 = ORIENTED_EDGE ( 'NONE', *, *, #64, .T. ) ;
#298 = DATE_AND_TIME ( #302, #89 ) ;
#299 = ADVANCED_FACE ( 'NONE', ( #170 ), #142, .F. ) ;
#300 =( NAMED_UNIT ( * ) SI_UNIT ( $, .STERADIAN. ) SOLID_ANGLE_UNIT ( ) );
#301 = DIRECTION ( 'NONE',  ( 1.000000000000000000, 0.0000000000000000000, 0.0000000000000000000 ) ) ;
#302 = CALENDAR_DATE ( 2015, 24, 2 ) ;
#303 = VECTOR ( 'NONE', #30, 1000.000000000000000 ) ;
#304 = EDGE_LOOP ( 'NONE', ( #153, #238, #163, #195 ) ) ;
#305 = EDGE_CURVE ( 'NONE', #31, #135, #4, .T. ) ;
#306 = CIRCLE ( 'NONE', #28, 6.208578643762692200 ) ;
#307 = DIRECTION ( 'NONE',  ( -1.224646799147353200E-016, -1.000000000000000000, 0.0000000000000000000 ) ) ;
#308 = CARTESIAN_POINT ( 'NONE',  ( 0.0000000000000000000, 0.0000000000000000000, 3.288580505604781200 ) ) ;
#309 = CC_DESIGN_APPROVAL ( #49, ( #316 ) ) ;
#310 = ORIENTED_EDGE ( 'NONE', *, *, #147, .F. ) ;
#311 = FACE_OUTER_BOUND ( 'NONE', #175, .T. ) ;
#312 = VERTEX_POINT ( 'NONE', #200 ) ;
#313 = DIRECTION ( 'NONE',  ( -0.0000000000000000000, -0.0000000000000000000, 1.000000000000000000 ) ) ;
#314 = DATE_TIME_ROLE ( 'classification_date' ) ;
#315 = CARTESIAN_POINT ( 'NONE',  ( 0.0000000000000000000, 0.0000000000000000000, 13.17000000000000000 ) ) ;
#316 = PRODUCT_DEFINITION ( 'UNKNOWN', '', #18, #68 ) ;
#317 = CARTESIAN_POINT ( 'NONE',  ( 0.0000000000000000000, 0.0000000000000000000, 9.017153270429325600 ) ) ;
#318 = APPROVAL ( #248, 'UNSPECIFIED' ) ;
#319 = DIRECTION ( 'NONE',  ( 1.000000000000000000, 0.0000000000000000000, 0.0000000000000000000 ) ) ;
#320 = COORDINATED_UNIVERSAL_TIME_OFFSET ( 5, 0, .BEHIND. ) ;
#321 = DIRECTION ( 'NONE',  ( -0.0000000000000000000, -0.0000000000000000000, 1.000000000000000000 ) ) ;
ENDSEC;
END-ISO-10303-21;
