ISO-10303-21;
HEADER;
FILE_DESCRIPTION (( 'STEP AP214' ),
    '1' );
FILE_NAME ('4801-E0W.STEP',
    '2009-12-21T17:14:43',
    ( ' ' ),
    ( ' ' ),
    'SwSTEP 2.0',
    'SolidWorks 2009',
    '' );
FILE_SCHEMA (( 'AUTOMOTIVE_DESIGN' ));
ENDSEC;

DATA;
#1 = ORIENTED_EDGE ( 'NONE', *, *, #14, .T. ) ;
#2 = ORIENTED_EDGE ( 'NONE', *, *, #65, .T. ) ;
#3 = ORIENTED_EDGE ( 'NONE', *, *, #69, .T. ) ;
#4 = ORIENTED_EDGE ( 'NONE', *, *, #14, .F. ) ;
#5 = ORIENTED_EDGE ( 'NONE', *, *, #24, .T. ) ;
#6 = ADVANCED_FACE ( 'NONE', ( #74 ), #187, .F. ) ;
#7 = ADVANCED_FACE ( 'NONE', ( #188 ), #168, .F. ) ;
#8 = ORIENTED_EDGE ( 'NONE', *, *, #69, .F. ) ;
#9 = ORIENTED_EDGE ( 'NONE', *, *, #16, .F. ) ;
#10 = ORIENTED_EDGE ( 'NONE', *, *, #62, .F. ) ;
#11 = EDGE_LOOP ( 'NONE', ( #8, #2, #5, #1 ) ) ;
#12 = CLOSED_SHELL ( 'NONE', ( #31, #64, #6, #7, #28 ) ) ;
#13 = ORIENTED_EDGE ( 'NONE', *, *, #63, .T. ) ;
#14 = EDGE_CURVE ( 'NONE', #22, #70, #167, .T. ) ;
#15 = EDGE_CURVE ( 'NONE', #18, #22, #158, .T. ) ;
#16 = EDGE_CURVE ( 'NONE', #18, #42, #154, .T. ) ;
#17 = ORIENTED_EDGE ( 'NONE', *, *, #15, .T. ) ;
#18 = VERTEX_POINT ( 'NONE', #149 ) ;
#19 = ORIENTED_EDGE ( 'NONE', *, *, #33, .F. ) ;
#20 = ORIENTED_EDGE ( 'NONE', *, *, #16, .T. ) ;
#21 = EDGE_LOOP ( 'NONE', ( #27, #20, #25, #10, #4 ) ) ;
#22 = VERTEX_POINT ( 'NONE', #148 ) ;
#23 = EDGE_LOOP ( 'NONE', ( #19, #9 ) ) ;
#24 = EDGE_CURVE ( 'NONE', #30, #22, #146, .T. ) ;
#25 = ORIENTED_EDGE ( 'NONE', *, *, #71, .T. ) ;
#26 = MANIFOLD_SOLID_BREP ( 'NONE', #12 ) ;
#27 = ORIENTED_EDGE ( 'NONE', *, *, #15, .F. ) ;
#28 = ADVANCED_FACE ( 'NONE', ( #127 ), #111, .T. ) ;
#29 = EDGE_LOOP ( 'NONE', ( #43, #17, #32, #59, #72 ) ) ;
#30 = VERTEX_POINT ( 'NONE', #110 ) ;
#31 = ADVANCED_FACE ( 'NONE', ( #261 ), #245, .T. ) ;
#32 = ORIENTED_EDGE ( 'NONE', *, *, #24, .F. ) ;
#33 = EDGE_CURVE ( 'NONE', #42, #18, #244, .T. ) ;
#34 = STYLED_ITEM ( 'NONE', ( #44 ), #6 ) ;
#35 =( LENGTH_UNIT ( ) NAMED_UNIT ( * ) SI_UNIT ( .MILLI., .METRE. ) );
#36 = SURFACE_SIDE_STYLE ('',( #75 ) ) ;
#37 =( NAMED_UNIT ( * ) SI_UNIT ( $, .STERADIAN. ) SOLID_ANGLE_UNIT ( ) );
#38 = SURFACE_STYLE_USAGE ( .BOTH. , #36 ) ;
#39 =( NAMED_UNIT ( * ) PLANE_ANGLE_UNIT ( ) SI_UNIT ( $, .RADIAN. ) );
#40 = PRESENTATION_LAYER_ASSIGNMENT (  '', '', ( #34 ) ) ;
#41 = MECHANICAL_DESIGN_GEOMETRIC_PRESENTATION_REPRESENTATION (  '', ( #34 ), #47 ) ;
#42 = VERTEX_POINT ( 'NONE', #235 ) ;
#43 = ORIENTED_EDGE ( 'NONE', *, *, #33, .T. ) ;
#44 = PRESENTATION_STYLE_ASSIGNMENT (( #38 ) ) ;
#45 = APPLICATION_CONTEXT ( 'automotive_design' ) ;
#46 = UNCERTAINTY_MEASURE_WITH_UNIT (LENGTH_MEASURE( 1.000000000000000100E-005 ), #35, 'distance_accuracy_value', 'NONE');
#47 =( GEOMETRIC_REPRESENTATION_CONTEXT ( 3 ) GLOBAL_UNCERTAINTY_ASSIGNED_CONTEXT ( ( #46 ) ) GLOBAL_UNIT_ASSIGNED_CONTEXT ( ( #35, #39, #37 ) ) REPRESENTATION_CONTEXT ( 'NONE', 'WORKASPACE' ) );
#48 = APPLICATION_PROTOCOL_DEFINITION ( 'draft international standard', 'automotive_design', 1998, #45 ) ;
#49 = PRODUCT_CONTEXT ( 'NONE', #45, 'mechanical' ) ;
#50 = APPLICATION_PROTOCOL_DEFINITION ( 'draft international standard', 'automotive_design', 1998, #51 ) ;
#51 = APPLICATION_CONTEXT ( 'automotive_design' ) ;
#52 = PRODUCT ( '4801-E0W', '4801-E0W', '', ( #49 ) ) ;
#53 = PRODUCT_DEFINITION ( 'UNKNOWN', '', #55, #56 ) ;
#54 = PRODUCT_RELATED_PRODUCT_CATEGORY ( 'part', '', ( #52 ) ) ;
#55 = PRODUCT_DEFINITION_FORMATION_WITH_SPECIFIED_SOURCE ( 'ANY', '', #52, .NOT_KNOWN. ) ;
#56 = PRODUCT_DEFINITION_CONTEXT ( 'detailed design', #51, 'design' ) ;
#57 = PRODUCT_DEFINITION_SHAPE ( 'NONE', 'NONE',  #53 ) ;
#58 = SHAPE_DEFINITION_REPRESENTATION ( #57, #208 ) ;
#59 = ORIENTED_EDGE ( 'NONE', *, *, #63, .F. ) ;
#60 = VERTEX_POINT ( 'NONE', #234 ) ;
#61 = EDGE_LOOP ( 'NONE', ( #68, #3, #67, #13 ) ) ;
#62 = EDGE_CURVE ( 'NONE', #70, #60, #105, .T. ) ;
#63 = EDGE_CURVE ( 'NONE', #60, #30, #99, .T. ) ;
#64 = ADVANCED_FACE ( 'NONE', ( #94 ), #79, .F. ) ;
#65 = EDGE_CURVE ( 'NONE', #66, #30, #233, .T. ) ;
#66 = VERTEX_POINT ( 'NONE', #225 ) ;
#67 = ORIENTED_EDGE ( 'NONE', *, *, #62, .T. ) ;
#68 = ORIENTED_EDGE ( 'NONE', *, *, #65, .F. ) ;
#69 = EDGE_CURVE ( 'NONE', #66, #70, #224, .T. ) ;
#70 = VERTEX_POINT ( 'NONE', #219 ) ;
#71 = EDGE_CURVE ( 'NONE', #42, #60, #218, .T. ) ;
#72 = ORIENTED_EDGE ( 'NONE', *, *, #71, .F. ) ;
#73 = COLOUR_RGB ( '',0.9568627450980391500, 0.9490196078431372100, 0.9607843137254902200 ) ;
#74 = FACE_OUTER_BOUND ( 'NONE', #11, .T. ) ;
#75 = SURFACE_STYLE_FILL_AREA ( #76 ) ;
#76 = FILL_AREA_STYLE ('',( #77 ) ) ;
#77 = FILL_AREA_STYLE_COLOUR ( '', #73 ) ;
#78 = CARTESIAN_POINT ( 'NONE',  ( 0.0000000000000000000, 0.0000000000000000000, 13.52144659278794800 ) ) ;
#79 = SPHERICAL_SURFACE ( 'NONE', #232, 12.85999999999999600 ) ;
#80 =( GEOMETRIC_REPRESENTATION_CONTEXT ( 3 ) GLOBAL_UNCERTAINTY_ASSIGNED_CONTEXT ( ( #81 ) ) GLOBAL_UNIT_ASSIGNED_CONTEXT ( ( #84, #83, #82 ) ) REPRESENTATION_CONTEXT ( 'NONE', 'WORKASPACE' ) );
#81 = UNCERTAINTY_MEASURE_WITH_UNIT (LENGTH_MEASURE( 1.000000000000000100E-005 ), #84, 'distance_accuracy_value', 'NONE');
#82 =( NAMED_UNIT ( * ) SI_UNIT ( $, .STERADIAN. ) SOLID_ANGLE_UNIT ( ) );
#83 =( NAMED_UNIT ( * ) PLANE_ANGLE_UNIT ( ) SI_UNIT ( $, .RADIAN. ) );
#84 =( LENGTH_UNIT ( ) NAMED_UNIT ( * ) SI_UNIT ( .MILLI., .METRE. ) );
#85 = MECHANICAL_DESIGN_GEOMETRIC_PRESENTATION_REPRESENTATION (  '', ( #87 ), #80 ) ;
#86 = PRESENTATION_LAYER_ASSIGNMENT (  '', '', ( #87 ) ) ;
#87 = STYLED_ITEM ( 'NONE', ( #88 ), #64 ) ;
#88 = PRESENTATION_STYLE_ASSIGNMENT (( #89 ) ) ;
#89 = SURFACE_STYLE_USAGE ( .BOTH. , #90 ) ;
#90 = SURFACE_SIDE_STYLE ('',( #91 ) ) ;
#91 = SURFACE_STYLE_FILL_AREA ( #92 ) ;
#92 = FILL_AREA_STYLE ('',( #100 ) ) ;
#93 = COLOUR_RGB ( '',0.9568627450980391500, 0.9490196078431372100, 0.9607843137254902200 ) ;
#94 = FACE_OUTER_BOUND ( 'NONE', #61, .T. ) ;
#95 = DIRECTION ( 'NONE',  ( 1.000000000000000000, 0.0000000000000000000, 0.0000000000000000000 ) ) ;
#96 = DIRECTION ( 'NONE',  ( -0.0000000000000000000, -0.0000000000000000000, 1.000000000000000000 ) ) ;
#97 = CARTESIAN_POINT ( 'NONE',  ( 0.0000000000000000000, 0.0000000000000000000, 2.338553407212048600 ) ) ;
#98 = AXIS2_PLACEMENT_3D ( 'NONE', #97, #96, #95 ) ;
#99 = CIRCLE ( 'NONE', #98, 6.349999999999998800 ) ;
#100 = FILL_AREA_STYLE_COLOUR ( '', #93 ) ;
#101 = DIRECTION ( 'NONE',  ( 1.000000000000000000, 0.0000000000000000000, 0.0000000000000000000 ) ) ;
#102 = DIRECTION ( 'NONE',  ( -0.0000000000000000000, -0.0000000000000000000, 1.000000000000000000 ) ) ;
#103 = CARTESIAN_POINT ( 'NONE',  ( 0.0000000000000000000, 0.0000000000000000000, 2.338553407212048600 ) ) ;
#104 = AXIS2_PLACEMENT_3D ( 'NONE', #103, #102, #101 ) ;
#105 = CIRCLE ( 'NONE', #104, 6.349999999999998800 ) ;
#106 = DIRECTION ( 'NONE',  ( 1.000000000000000000, 0.0000000000000000000, 0.0000000000000000000 ) ) ;
#107 = DIRECTION ( 'NONE',  ( -0.0000000000000000000, -0.0000000000000000000, 1.000000000000000000 ) ) ;
#108 = CARTESIAN_POINT ( 'NONE',  ( 0.0000000000000000000, 0.0000000000000000000, 8.178599863217275600 ) ) ;
#109 = AXIS2_PLACEMENT_3D ( 'NONE', #108, #107, #106 ) ;
#110 = CARTESIAN_POINT ( 'NONE',  ( 0.0000000000000000000, 6.349999999999999600, 2.338553407212049100 ) ) ;
#111 = CYLINDRICAL_SURFACE ( 'NONE', #109, 6.349999999999999600 ) ;
#112 =( GEOMETRIC_REPRESENTATION_CONTEXT ( 3 ) GLOBAL_UNCERTAINTY_ASSIGNED_CONTEXT ( ( #113 ) ) GLOBAL_UNIT_ASSIGNED_CONTEXT ( ( #116, #115, #114 ) ) REPRESENTATION_CONTEXT ( 'NONE', 'WORKASPACE' ) );
#113 = UNCERTAINTY_MEASURE_WITH_UNIT (LENGTH_MEASURE( 1.000000000000000100E-005 ), #116, 'distance_accuracy_value', 'NONE');
#114 =( NAMED_UNIT ( * ) SI_UNIT ( $, .STERADIAN. ) SOLID_ANGLE_UNIT ( ) );
#115 =( NAMED_UNIT ( * ) PLANE_ANGLE_UNIT ( ) SI_UNIT ( $, .RADIAN. ) );
#116 =( LENGTH_UNIT ( ) NAMED_UNIT ( * ) SI_UNIT ( .MILLI., .METRE. ) );
#117 = MECHANICAL_DESIGN_GEOMETRIC_PRESENTATION_REPRESENTATION (  '', ( #119 ), #112 ) ;
#118 = PRESENTATION_LAYER_ASSIGNMENT (  '', '', ( #119 ) ) ;
#119 = STYLED_ITEM ( 'NONE', ( #120 ), #28 ) ;
#120 = PRESENTATION_STYLE_ASSIGNMENT (( #121 ) ) ;
#121 = SURFACE_STYLE_USAGE ( .BOTH. , #122 ) ;
#122 = SURFACE_SIDE_STYLE ('',( #123 ) ) ;
#123 = SURFACE_STYLE_FILL_AREA ( #124 ) ;
#124 = FILL_AREA_STYLE ('',( #125 ) ) ;
#125 = FILL_AREA_STYLE_COLOUR ( '', #126 ) ;
#126 = COLOUR_RGB ( '',0.9568627450980391500, 0.9490196078431372100, 0.9607843137254902200 ) ;
#127 = FACE_OUTER_BOUND ( 'NONE', #21, .T. ) ;
#128 =( GEOMETRIC_REPRESENTATION_CONTEXT ( 3 ) GLOBAL_UNCERTAINTY_ASSIGNED_CONTEXT ( ( #129 ) ) GLOBAL_UNIT_ASSIGNED_CONTEXT ( ( #132, #131, #130 ) ) REPRESENTATION_CONTEXT ( 'NONE', 'WORKASPACE' ) );
#129 = UNCERTAINTY_MEASURE_WITH_UNIT (LENGTH_MEASURE( 1.000000000000000100E-005 ), #132, 'distance_accuracy_value', 'NONE');
#130 =( NAMED_UNIT ( * ) SI_UNIT ( $, .STERADIAN. ) SOLID_ANGLE_UNIT ( ) );
#131 =( NAMED_UNIT ( * ) PLANE_ANGLE_UNIT ( ) SI_UNIT ( $, .RADIAN. ) );
#132 =( LENGTH_UNIT ( ) NAMED_UNIT ( * ) SI_UNIT ( .MILLI., .METRE. ) );
#133 = MECHANICAL_DESIGN_GEOMETRIC_PRESENTATION_REPRESENTATION (  '', ( #135 ), #128 ) ;
#134 = PRESENTATION_LAYER_ASSIGNMENT (  '', '', ( #135 ) ) ;
#135 = STYLED_ITEM ( 'NONE', ( #136 ), #26 ) ;
#136 = PRESENTATION_STYLE_ASSIGNMENT (( #137 ) ) ;
#137 = SURFACE_STYLE_USAGE ( .BOTH. , #138 ) ;
#138 = SURFACE_SIDE_STYLE ('',( #139 ) ) ;
#139 = SURFACE_STYLE_FILL_AREA ( #140 ) ;
#140 = FILL_AREA_STYLE ('',( #147 ) ) ;
#141 = COLOUR_RGB ( '',0.7960784313725489700, 0.8235294117647058400, 0.9372549019607843100 ) ;
#142 = DIRECTION ( 'NONE',  ( 1.000000000000000000, 0.0000000000000000000, 0.0000000000000000000 ) ) ;
#143 = DIRECTION ( 'NONE',  ( -0.0000000000000000000, -0.0000000000000000000, 1.000000000000000000 ) ) ;
#144 = CARTESIAN_POINT ( 'NONE',  ( 0.0000000000000000000, 0.0000000000000000000, 2.338553407212048600 ) ) ;
#145 = AXIS2_PLACEMENT_3D ( 'NONE', #144, #143, #142 ) ;
#146 = CIRCLE ( 'NONE', #145, 6.349999999999998800 ) ;
#147 = FILL_AREA_STYLE_COLOUR ( '', #141 ) ;
#148 = CARTESIAN_POINT ( 'NONE',  ( -6.349999999999998800, 7.776250346772094400E-016, 2.338553407212048600 ) ) ;
#149 = CARTESIAN_POINT ( 'NONE',  ( -6.350000000000001400, 7.776250346772097400E-016, -2.338553407212048600 ) ) ;
#150 = DIRECTION ( 'NONE',  ( 1.000000000000000000, 0.0000000000000000000, 0.0000000000000000000 ) ) ;
#151 = DIRECTION ( 'NONE',  ( -0.0000000000000000000, -0.0000000000000000000, 1.000000000000000000 ) ) ;
#152 = CARTESIAN_POINT ( 'NONE',  ( 0.0000000000000000000, 0.0000000000000000000, -2.338553407212048600 ) ) ;
#153 = AXIS2_PLACEMENT_3D ( 'NONE', #152, #151, #150 ) ;
#154 = CIRCLE ( 'NONE', #153, 6.350000000000000500 ) ;
#155 = DIRECTION ( 'NONE',  ( -0.0000000000000000000, -0.0000000000000000000, 1.000000000000000000 ) ) ;
#156 = VECTOR ( 'NONE', #155, 1000.000000000000000 ) ;
#157 = CARTESIAN_POINT ( 'NONE',  ( -6.349999999999999600, 7.776250346772095400E-016, 8.178599863217275600 ) ) ;
#158 = LINE ( 'NONE', #157, #156 ) ;
#159 = DIRECTION ( 'NONE',  ( 1.000000000000000000, 0.0000000000000000000, 0.0000000000000000000 ) ) ;
#160 = DIRECTION ( 'NONE',  ( -0.0000000000000000000, -0.0000000000000000000, 1.000000000000000000 ) ) ;
#161 = CARTESIAN_POINT ( 'NONE',  ( 0.0000000000000000000, 0.0000000000000000000, 2.338553407212048600 ) ) ;
#162 = AXIS2_PLACEMENT_3D ( 'NONE', #161, #160, #159 ) ;
#163 = DIRECTION ( 'NONE',  ( 1.000000000000000000, 0.0000000000000000000, 0.0000000000000000000 ) ) ;
#164 = DIRECTION ( 'NONE',  ( 0.0000000000000000000, -0.0000000000000000000, 1.000000000000000000 ) ) ;
#165 = CARTESIAN_POINT ( 'NONE',  ( 0.0000000000000000000, 5.510910596163088600E-016, -2.338553407212049100 ) ) ;
#166 = AXIS2_PLACEMENT_3D ( 'NONE', #165, #164, #163 ) ;
#167 = CIRCLE ( 'NONE', #162, 6.349999999999998800 ) ;
#168 = PLANE ( 'NONE',  #166 ) ;
#169 =( GEOMETRIC_REPRESENTATION_CONTEXT ( 3 ) GLOBAL_UNCERTAINTY_ASSIGNED_CONTEXT ( ( #170 ) ) GLOBAL_UNIT_ASSIGNED_CONTEXT ( ( #173, #172, #171 ) ) REPRESENTATION_CONTEXT ( 'NONE', 'WORKASPACE' ) );
#170 = UNCERTAINTY_MEASURE_WITH_UNIT (LENGTH_MEASURE( 1.000000000000000100E-005 ), #173, 'distance_accuracy_value', 'NONE');
#171 =( NAMED_UNIT ( * ) SI_UNIT ( $, .STERADIAN. ) SOLID_ANGLE_UNIT ( ) );
#172 =( NAMED_UNIT ( * ) PLANE_ANGLE_UNIT ( ) SI_UNIT ( $, .RADIAN. ) );
#173 =( LENGTH_UNIT ( ) NAMED_UNIT ( * ) SI_UNIT ( .MILLI., .METRE. ) );
#174 = MECHANICAL_DESIGN_GEOMETRIC_PRESENTATION_REPRESENTATION (  '', ( #176 ), #169 ) ;
#175 = PRESENTATION_LAYER_ASSIGNMENT (  '', '', ( #176 ) ) ;
#176 = STYLED_ITEM ( 'NONE', ( #177 ), #7 ) ;
#177 = PRESENTATION_STYLE_ASSIGNMENT (( #178 ) ) ;
#178 = SURFACE_STYLE_USAGE ( .BOTH. , #179 ) ;
#179 = SURFACE_SIDE_STYLE ('',( #180 ) ) ;
#180 = SURFACE_STYLE_FILL_AREA ( #181 ) ;
#181 = FILL_AREA_STYLE ('',( #189 ) ) ;
#182 = COLOUR_RGB ( '',0.9568627450980391500, 0.9490196078431372100, 0.9607843137254902200 ) ;
#183 = DIRECTION ( 'NONE',  ( 0.0000000000000000000, 1.000000000000000000, 0.0000000000000000000 ) ) ;
#184 = DIRECTION ( 'NONE',  ( -1.000000000000000000, 0.0000000000000000000, 0.0000000000000000000 ) ) ;
#185 = CARTESIAN_POINT ( 'NONE',  ( 0.0000000000000000000, 0.0000000000000000000, 13.52144659278794800 ) ) ;
#186 = AXIS2_PLACEMENT_3D ( 'NONE', #185, #184, #183 ) ;
#187 = SPHERICAL_SURFACE ( 'NONE', #186, 12.85999999999999600 ) ;
#188 = FACE_OUTER_BOUND ( 'NONE', #23, .T. ) ;
#189 = FILL_AREA_STYLE_COLOUR ( '', #182 ) ;
#190 = DIRECTION ( 'NONE',  ( 0.0000000000000000000, 0.0000000000000000000, 1.000000000000000000 ) ) ;
#191 = CARTESIAN_POINT ( 'NONE',  ( 0.0000000000000000000, 0.0000000000000000000, 0.0000000000000000000 ) ) ;
#192 = DIRECTION ( 'NONE',  ( 1.000000000000000000, 0.0000000000000000000, 0.0000000000000000000 ) ) ;
#193 =( GEOMETRIC_REPRESENTATION_CONTEXT ( 3 ) GLOBAL_UNCERTAINTY_ASSIGNED_CONTEXT ( ( #194 ) ) GLOBAL_UNIT_ASSIGNED_CONTEXT ( ( #197, #196, #195 ) ) REPRESENTATION_CONTEXT ( 'NONE', 'WORKASPACE' ) );
#194 = UNCERTAINTY_MEASURE_WITH_UNIT (LENGTH_MEASURE( 1.000000000000000100E-005 ), #197, 'distance_accuracy_value', 'NONE');
#195 =( NAMED_UNIT ( * ) SI_UNIT ( $, .STERADIAN. ) SOLID_ANGLE_UNIT ( ) );
#196 =( NAMED_UNIT ( * ) PLANE_ANGLE_UNIT ( ) SI_UNIT ( $, .RADIAN. ) );
#197 =( LENGTH_UNIT ( ) NAMED_UNIT ( * ) SI_UNIT ( .MILLI., .METRE. ) );
#198 = MECHANICAL_DESIGN_GEOMETRIC_PRESENTATION_REPRESENTATION (  '', ( #200 ), #193 ) ;
#199 = PRESENTATION_LAYER_ASSIGNMENT (  '', '', ( #200 ) ) ;
#200 = STYLED_ITEM ( 'NONE', ( #201 ), #208 ) ;
#201 = PRESENTATION_STYLE_ASSIGNMENT (( #202 ) ) ;
#202 = SURFACE_STYLE_USAGE ( .BOTH. , #203 ) ;
#203 = SURFACE_SIDE_STYLE ('',( #204 ) ) ;
#204 = SURFACE_STYLE_FILL_AREA ( #205 ) ;
#205 = FILL_AREA_STYLE ('',( #206 ) ) ;
#206 = FILL_AREA_STYLE_COLOUR ( '', #207 ) ;
#207 = COLOUR_RGB ( '',0.7960784313725489700, 0.8235294117647058400, 0.9372549019607843100 ) ;
#208 = ADVANCED_BREP_SHAPE_REPRESENTATION ( '4801-E0W', ( #26, #214 ), #209 ) ;
#209 =( GEOMETRIC_REPRESENTATION_CONTEXT ( 3 ) GLOBAL_UNCERTAINTY_ASSIGNED_CONTEXT ( ( #210 ) ) GLOBAL_UNIT_ASSIGNED_CONTEXT ( ( #213, #212, #211 ) ) REPRESENTATION_CONTEXT ( 'NONE', 'WORKASPACE' ) );
#210 = UNCERTAINTY_MEASURE_WITH_UNIT (LENGTH_MEASURE( 1.000000000000000100E-005 ), #213, 'distance_accuracy_value', 'NONE');
#211 =( NAMED_UNIT ( * ) SI_UNIT ( $, .STERADIAN. ) SOLID_ANGLE_UNIT ( ) );
#212 =( NAMED_UNIT ( * ) PLANE_ANGLE_UNIT ( ) SI_UNIT ( $, .RADIAN. ) );
#213 =( LENGTH_UNIT ( ) NAMED_UNIT ( * ) SI_UNIT ( .MILLI., .METRE. ) );
#214 = AXIS2_PLACEMENT_3D ( 'NONE', #191, #190, #192 ) ;
#215 = DIRECTION ( 'NONE',  ( -0.0000000000000000000, -0.0000000000000000000, 1.000000000000000000 ) ) ;
#216 = VECTOR ( 'NONE', #215, 1000.000000000000000 ) ;
#217 = CARTESIAN_POINT ( 'NONE',  ( 6.349999999999999600, 0.0000000000000000000, 8.178599863217275600 ) ) ;
#218 = LINE ( 'NONE', #217, #216 ) ;
#219 = CARTESIAN_POINT ( 'NONE',  ( -7.776250346772096400E-016, -6.349999999999999600, 2.338553407212049100 ) ) ;
#220 = DIRECTION ( 'NONE',  ( -1.224606353822377300E-016, -1.000000000000000000, 0.0000000000000000000 ) ) ;
#221 = DIRECTION ( 'NONE',  ( -1.000000000000000000, 1.224606353822377300E-016, 0.0000000000000000000 ) ) ;
#222 = CARTESIAN_POINT ( 'NONE',  ( 0.0000000000000000000, 0.0000000000000000000, 13.52144659278794800 ) ) ;
#223 = AXIS2_PLACEMENT_3D ( 'NONE', #222, #221, #220 ) ;
#224 = CIRCLE ( 'NONE', #223, 12.85999999999999600 ) ;
#225 = CARTESIAN_POINT ( 'NONE',  ( 0.0000000000000000000, 7.874218855077883200E-016, 0.6614465927879519300 ) ) ;
#226 = DIRECTION ( 'NONE',  ( 0.0000000000000000000, 0.0000000000000000000, -1.000000000000000000 ) ) ;
#227 = DIRECTION ( 'NONE',  ( 1.000000000000000000, 0.0000000000000000000, 0.0000000000000000000 ) ) ;
#228 = CARTESIAN_POINT ( 'NONE',  ( 0.0000000000000000000, 0.0000000000000000000, 13.52144659278794800 ) ) ;
#229 = AXIS2_PLACEMENT_3D ( 'NONE', #228, #227, #226 ) ;
#230 = DIRECTION ( 'NONE',  ( 0.0000000000000000000, 1.000000000000000000, 0.0000000000000000000 ) ) ;
#231 = DIRECTION ( 'NONE',  ( -1.000000000000000000, 0.0000000000000000000, 0.0000000000000000000 ) ) ;
#232 = AXIS2_PLACEMENT_3D ( 'NONE', #78, #231, #230 ) ;
#233 = CIRCLE ( 'NONE', #229, 12.85999999999999600 ) ;
#234 = CARTESIAN_POINT ( 'NONE',  ( 6.349999999999998800, 0.0000000000000000000, 2.338553407212048600 ) ) ;
#235 = CARTESIAN_POINT ( 'NONE',  ( 6.350000000000000500, 0.0000000000000000000, -2.338553407212048600 ) ) ;
#236 = DIRECTION ( 'NONE',  ( 1.000000000000000000, 0.0000000000000000000, 0.0000000000000000000 ) ) ;
#237 = DIRECTION ( 'NONE',  ( -0.0000000000000000000, -0.0000000000000000000, 1.000000000000000000 ) ) ;
#238 = CARTESIAN_POINT ( 'NONE',  ( 0.0000000000000000000, 0.0000000000000000000, -2.338553407212048600 ) ) ;
#239 = AXIS2_PLACEMENT_3D ( 'NONE', #238, #237, #236 ) ;
#240 = DIRECTION ( 'NONE',  ( 1.000000000000000000, 0.0000000000000000000, 0.0000000000000000000 ) ) ;
#241 = DIRECTION ( 'NONE',  ( -0.0000000000000000000, -0.0000000000000000000, 1.000000000000000000 ) ) ;
#242 = CARTESIAN_POINT ( 'NONE',  ( 0.0000000000000000000, 0.0000000000000000000, 8.178599863217275600 ) ) ;
#243 = AXIS2_PLACEMENT_3D ( 'NONE', #242, #241, #240 ) ;
#244 = CIRCLE ( 'NONE', #239, 6.350000000000000500 ) ;
#245 = CYLINDRICAL_SURFACE ( 'NONE', #243, 6.349999999999999600 ) ;
#246 =( GEOMETRIC_REPRESENTATION_CONTEXT ( 3 ) GLOBAL_UNCERTAINTY_ASSIGNED_CONTEXT ( ( #247 ) ) GLOBAL_UNIT_ASSIGNED_CONTEXT ( ( #250, #249, #248 ) ) REPRESENTATION_CONTEXT ( 'NONE', 'WORKASPACE' ) );
#247 = UNCERTAINTY_MEASURE_WITH_UNIT (LENGTH_MEASURE( 1.000000000000000100E-005 ), #250, 'distance_accuracy_value', 'NONE');
#248 =( NAMED_UNIT ( * ) SI_UNIT ( $, .STERADIAN. ) SOLID_ANGLE_UNIT ( ) );
#249 =( NAMED_UNIT ( * ) PLANE_ANGLE_UNIT ( ) SI_UNIT ( $, .RADIAN. ) );
#250 =( LENGTH_UNIT ( ) NAMED_UNIT ( * ) SI_UNIT ( .MILLI., .METRE. ) );
#251 = MECHANICAL_DESIGN_GEOMETRIC_PRESENTATION_REPRESENTATION (  '', ( #253 ), #246 ) ;
#252 = PRESENTATION_LAYER_ASSIGNMENT (  '', '', ( #253 ) ) ;
#253 = STYLED_ITEM ( 'NONE', ( #254 ), #31 ) ;
#254 = PRESENTATION_STYLE_ASSIGNMENT (( #255 ) ) ;
#255 = SURFACE_STYLE_USAGE ( .BOTH. , #256 ) ;
#256 = SURFACE_SIDE_STYLE ('',( #257 ) ) ;
#257 = SURFACE_STYLE_FILL_AREA ( #258 ) ;
#258 = FILL_AREA_STYLE ('',( #259 ) ) ;
#259 = FILL_AREA_STYLE_COLOUR ( '', #260 ) ;
#260 = COLOUR_RGB ( '',0.9568627450980391500, 0.9490196078431372100, 0.9607843137254902200 ) ;
#261 = FACE_OUTER_BOUND ( 'NONE', #29, .T. ) ;
ENDSEC;
END-ISO-10303-21;
