ISO-10303-21;
HEADER;
FILE_DESCRIPTION (( 'STEP AP203' ),
    '1' );
FILE_NAME ('Web Model 68804_68812.step',
    '2017-03-06T17:44:21',
    ( '' ),
    ( '' ),
    'SwSTEP 2.0',
    'SolidWorks 2016',
    '' );
FILE_SCHEMA (( 'CONFIG_CONTROL_DESIGN' ));
ENDSEC;

DATA;
#1 = CARTESIAN_POINT ( 'NONE',  ( 0.0000000000000000000, 0.0000000000000000000, 0.0000000000000000000 ) ) ;
#2 = APPROVAL_DATE_TIME ( #151, #47 ) ;
#3 = DIRECTION ( 'NONE',  ( 1.000000000000000000, 0.0000000000000000000, -0.0000000000000000000 ) ) ;
#4 = DIRECTION ( 'NONE',  ( 0.0000000000000000000, 0.0000000000000000000, 1.000000000000000000 ) ) ;
#5 = DIRECTION ( 'NONE',  ( 1.000000000000000000, 0.0000000000000000000, 0.0000000000000000000 ) ) ;
#6 = CC_DESIGN_SECURITY_CLASSIFICATION ( #133, ( #80 ) ) ;
#7 = DIRECTION ( 'NONE',  ( -0.0000000000000000000, -0.0000000000000000000, -1.000000000000000000 ) ) ;
#8 = COORDINATED_UNIVERSAL_TIME_OFFSET ( 5, 0, .BEHIND. ) ;
#9 = CIRCLE ( 'NONE', #67, 6.499999999999999100 ) ;
#10 =( LENGTH_UNIT ( ) NAMED_UNIT ( * ) SI_UNIT ( .MILLI., .METRE. ) );
#11 = APPROVAL_ROLE ( '' ) ;
#12 = DESIGN_CONTEXT ( 'detailed design', #158, 'design' ) ;
#13 = ORIENTED_EDGE ( 'NONE', *, *, #167, .T. ) ;
#14 = EDGE_CURVE ( 'NONE', #161, #152, #81, .T. ) ;
#15 = PRODUCT_RELATED_PRODUCT_CATEGORY ( 'detail', '', ( #119 ) ) ;
#16 = LOCAL_TIME ( 12, 44, 21.00000000000000000, #8 ) ;
#17 = FACE_OUTER_BOUND ( 'NONE', #148, .T. ) ;
#18 = EDGE_LOOP ( 'NONE', ( #86, #110, #13, #39 ) ) ;
#19 = DIRECTION ( 'NONE',  ( 1.000000000000000000, 0.0000000000000000000, -0.0000000000000000000 ) ) ;
#20 = CARTESIAN_POINT ( 'NONE',  ( -6.499999999999999100, 0.0000000000000000000, 0.5000000000000000000 ) ) ;
#21 = AXIS2_PLACEMENT_3D ( 'NONE', #146, #42, #105 ) ;
#22 = COORDINATED_UNIVERSAL_TIME_OFFSET ( 5, 0, .BEHIND. ) ;
#23 = CALENDAR_DATE ( 2017, 6, 3 ) ;
#24 = PERSON_AND_ORGANIZATION_ROLE ( 'creator' ) ;
#25 = EDGE_CURVE ( 'NONE', #77, #175, #156, .T. ) ;
#26 = PERSON_AND_ORGANIZATION_ROLE ( 'design_owner' ) ;
#27 = AXIS2_PLACEMENT_3D ( 'NONE', #1, #64, #57 ) ;
#28 = AXIS2_PLACEMENT_3D ( 'NONE', #106, #107, #5 ) ;
#29 = DIRECTION ( 'NONE',  ( -0.0000000000000000000, -0.0000000000000000000, -1.000000000000000000 ) ) ;
#30 = COORDINATED_UNIVERSAL_TIME_OFFSET ( 5, 0, .BEHIND. ) ;
#31 = DATE_AND_TIME ( #160, #147 ) ;
#32 = PRODUCT_DEFINITION_SHAPE ( 'NONE', 'NONE',  #41 ) ;
#33 = CC_DESIGN_PERSON_AND_ORGANIZATION_ASSIGNMENT ( #102, #26, ( #119 ) ) ;
#34 = ADVANCED_FACE ( 'NONE', ( #17 ), #174, .T. ) ;
#35 = DATE_TIME_ROLE ( 'creation_date' ) ;
#36 = LOCAL_TIME ( 12, 44, 21.00000000000000000, #30 ) ;
#37 = CARTESIAN_POINT ( 'NONE',  ( 0.0000000000000000000, 0.0000000000000000000, 0.5000000000000000000 ) ) ;
#38 = DATE_AND_TIME ( #23, #16 ) ;
#39 = ORIENTED_EDGE ( 'NONE', *, *, #25, .T. ) ;
#40 = CARTESIAN_POINT ( 'NONE',  ( 6.499999999999999100, 7.960204194457794500E-016, -0.5000000000000000000 ) ) ;
#41 = PRODUCT_DEFINITION ( 'UNKNOWN', '', #80, #12 ) ;
#42 = DIRECTION ( 'NONE',  ( 0.0000000000000000000, 0.0000000000000000000, 1.000000000000000000 ) ) ;
#43 = PERSON_AND_ORGANIZATION ( #49, #98 ) ;
#44 = EDGE_LOOP ( 'NONE', ( #69, #73 ) ) ;
#45 = DATE_AND_TIME ( #75, #84 ) ;
#46 = PERSON_AND_ORGANIZATION ( #49, #98 ) ;
#47 = APPROVAL ( #66, 'UNSPECIFIED' ) ;
#48 = FACE_OUTER_BOUND ( 'NONE', #44, .T. ) ;
#49 = PERSON ( 'UNSPECIFIED', 'UNSPECIFIED', 'UNSPECIFIED', ('UNSPECIFIED'), ('UNSPECIFIED'), ('UNSPECIFIED') ) ;
#50 = FACE_OUTER_BOUND ( 'NONE', #18, .T. ) ;
#51 = DIRECTION ( 'NONE',  ( -1.000000000000000000, 0.0000000000000000000, 0.0000000000000000000 ) ) ;
#52 = DIRECTION ( 'NONE',  ( 0.0000000000000000000, 0.0000000000000000000, 1.000000000000000000 ) ) ;
#53 = AXIS2_PLACEMENT_3D ( 'NONE', #124, #58, #3 ) ;
#54 = VECTOR ( 'NONE', #125, 1000.000000000000000 ) ;
#55 = CC_DESIGN_APPROVAL ( #47, ( #41 ) ) ;
#56 = DATE_TIME_ROLE ( 'classification_date' ) ;
#57 = DIRECTION ( 'NONE',  ( 1.000000000000000000, 0.0000000000000000000, 0.0000000000000000000 ) ) ;
#58 = DIRECTION ( 'NONE',  ( 0.0000000000000000000, 0.0000000000000000000, 1.000000000000000000 ) ) ;
#59 = CARTESIAN_POINT ( 'NONE',  ( 0.0000000000000000000, 0.0000000000000000000, 0.5000000000000000000 ) ) ;
#60 = VECTOR ( 'NONE', #7, 1000.000000000000000 ) ;
#61 = CC_DESIGN_PERSON_AND_ORGANIZATION_ASSIGNMENT ( #43, #144, ( #41 ) ) ;
#62 = AXIS2_PLACEMENT_3D ( 'NONE', #137, #52, #135 ) ;
#63 = APPROVAL_PERSON_ORGANIZATION ( #46, #94, #11 ) ;
#64 = DIRECTION ( 'NONE',  ( 0.0000000000000000000, 0.0000000000000000000, 1.000000000000000000 ) ) ;
#65 = ORIENTED_EDGE ( 'NONE', *, *, #79, .T. ) ;
#66 = APPROVAL_STATUS ( 'not_yet_approved' ) ;
#67 = AXIS2_PLACEMENT_3D ( 'NONE', #93, #4, #76 ) ;
#68 = COORDINATED_UNIVERSAL_TIME_OFFSET ( 5, 0, .BEHIND. ) ;
#69 = ORIENTED_EDGE ( 'NONE', *, *, #25, .F. ) ;
#70 = CC_DESIGN_DATE_AND_TIME_ASSIGNMENT ( #38, #35, ( #41 ) ) ;
#71 = ADVANCED_BREP_SHAPE_REPRESENTATION ( 'Web Model 68804_68812', ( #127, #27 ), #154 ) ;
#72 = CARTESIAN_POINT ( 'NONE',  ( 6.499999999999999100, 7.960204194457794500E-016, 0.5000000000000000000 ) ) ;
#73 = ORIENTED_EDGE ( 'NONE', *, *, #141, .F. ) ;
#74 = LINE ( 'NONE', #163, #60 ) ;
#75 = CALENDAR_DATE ( 2017, 6, 3 ) ;
#76 = DIRECTION ( 'NONE',  ( 1.000000000000000000, 0.0000000000000000000, 0.0000000000000000000 ) ) ;
#77 = VERTEX_POINT ( 'NONE', #92 ) ;
#78 = ORIENTED_EDGE ( 'NONE', *, *, #167, .F. ) ;
#79 = EDGE_CURVE ( 'NONE', #152, #175, #74, .T. ) ;
#80 = PRODUCT_DEFINITION_FORMATION_WITH_SPECIFIED_SOURCE ( 'ANY', '', #119, .NOT_KNOWN. ) ;
#81 = CIRCLE ( 'NONE', #62, 6.499999999999999100 ) ;
#82 = ADVANCED_FACE ( 'NONE', ( #48 ), #136, .F. ) ;
#83 = APPLICATION_CONTEXT ( 'configuration controlled 3d designs of mechanical parts and assemblies' ) ;
#84 = LOCAL_TIME ( 12, 44, 21.00000000000000000, #22 ) ;
#85 = COORDINATED_UNIVERSAL_TIME_OFFSET ( 5, 0, .BEHIND. ) ;
#86 = ORIENTED_EDGE ( 'NONE', *, *, #79, .F. ) ;
#87 = SHAPE_DEFINITION_REPRESENTATION ( #32, #71 ) ;
#88 = APPROVAL_DATE_TIME ( #45, #162 ) ;
#89 = LOCAL_TIME ( 12, 44, 21.00000000000000000, #85 ) ;
#90 = CIRCLE ( 'NONE', #28, 6.499999999999999100 ) ;
#91 = DIRECTION ( 'NONE',  ( 0.0000000000000000000, 0.0000000000000000000, 1.000000000000000000 ) ) ;
#92 = CARTESIAN_POINT ( 'NONE',  ( -6.499999999999999100, 0.0000000000000000000, -0.5000000000000000000 ) ) ;
#93 = CARTESIAN_POINT ( 'NONE',  ( 0.0000000000000000000, 0.0000000000000000000, 0.5000000000000000000 ) ) ;
#94 = APPROVAL ( #169, 'UNSPECIFIED' ) ;
#95 = PLANE ( 'NONE',  #164 ) ;
#96 = AXIS2_PLACEMENT_3D ( 'NONE', #138, #122, #51 ) ;
#97 = CALENDAR_DATE ( 2017, 6, 3 ) ;
#98 = ORGANIZATION ( 'UNSPECIFIED', 'UNSPECIFIED', '' ) ;
#99 = ADVANCED_FACE ( 'NONE', ( #50 ), #173, .T. ) ;
#100 = PERSON_AND_ORGANIZATION_ROLE ( 'classification_officer' ) ;
#101 =( NAMED_UNIT ( * ) SI_UNIT ( $, .STERADIAN. ) SOLID_ANGLE_UNIT ( ) );
#102 = PERSON_AND_ORGANIZATION ( #49, #98 ) ;
#103 = MECHANICAL_CONTEXT ( 'NONE', #83, 'mechanical' ) ;
#104 = CC_DESIGN_APPROVAL ( #94, ( #80 ) ) ;
#105 = DIRECTION ( 'NONE',  ( 1.000000000000000000, 0.0000000000000000000, 0.0000000000000000000 ) ) ;
#106 = CARTESIAN_POINT ( 'NONE',  ( 0.0000000000000000000, 0.0000000000000000000, -0.5000000000000000000 ) ) ;
#107 = DIRECTION ( 'NONE',  ( 0.0000000000000000000, 0.0000000000000000000, 1.000000000000000000 ) ) ;
#108 = AXIS2_PLACEMENT_3D ( 'NONE', #59, #29, #149 ) ;
#109 = UNCERTAINTY_MEASURE_WITH_UNIT (LENGTH_MEASURE( 1.000000000000000100E-005 ), #10, 'distance_accuracy_value', 'NONE');
#110 = ORIENTED_EDGE ( 'NONE', *, *, #14, .F. ) ;
#111 = FACE_OUTER_BOUND ( 'NONE', #121, .T. ) ;
#112 = DATE_AND_TIME ( #97, #89 ) ;
#113 = ORIENTED_EDGE ( 'NONE', *, *, #132, .F. ) ;
#114 = CC_DESIGN_PERSON_AND_ORGANIZATION_ASSIGNMENT ( #134, #24, ( #80 ) ) ;
#115 =( NAMED_UNIT ( * ) PLANE_ANGLE_UNIT ( ) SI_UNIT ( $, .RADIAN. ) );
#116 = APPROVAL_ROLE ( '' ) ;
#117 = APPROVAL_DATE_TIME ( #112, #94 ) ;
#118 = ORIENTED_EDGE ( 'NONE', *, *, #141, .T. ) ;
#119 = PRODUCT ( 'Web Model 68804_68812', 'Web Model 68804_68812', '', ( #103 ) ) ;
#120 = CALENDAR_DATE ( 2017, 6, 3 ) ;
#121 = EDGE_LOOP ( 'NONE', ( #153, #143 ) ) ;
#122 = DIRECTION ( 'NONE',  ( -0.0000000000000000000, -0.0000000000000000000, -1.000000000000000000 ) ) ;
#123 = CC_DESIGN_PERSON_AND_ORGANIZATION_ASSIGNMENT ( #140, #159, ( #80 ) ) ;
#124 = CARTESIAN_POINT ( 'NONE',  ( 0.0000000000000000000, 0.0000000000000000000, -0.5000000000000000000 ) ) ;
#125 = DIRECTION ( 'NONE',  ( -0.0000000000000000000, -0.0000000000000000000, -1.000000000000000000 ) ) ;
#126 = APPLICATION_PROTOCOL_DEFINITION ( 'international standard', 'config_control_design', 1994, #83 ) ;
#127 = MANIFOLD_SOLID_BREP ( 'Boss-Extrude1', #131 ) ;
#128 = APPLICATION_PROTOCOL_DEFINITION ( 'international standard', 'config_control_design', 1994, #158 ) ;
#129 = APPROVAL_PERSON_ORGANIZATION ( #139, #47, #130 ) ;
#130 = APPROVAL_ROLE ( '' ) ;
#131 = CLOSED_SHELL ( 'NONE', ( #34, #99, #155, #82 ) ) ;
#132 = EDGE_CURVE ( 'NONE', #152, #161, #9, .T. ) ;
#133 = SECURITY_CLASSIFICATION ( '', '', #170 ) ;
#134 = PERSON_AND_ORGANIZATION ( #49, #98 ) ;
#135 = DIRECTION ( 'NONE',  ( 1.000000000000000000, 0.0000000000000000000, 0.0000000000000000000 ) ) ;
#136 = PLANE ( 'NONE',  #53 ) ;
#137 = CARTESIAN_POINT ( 'NONE',  ( 0.0000000000000000000, 0.0000000000000000000, 0.5000000000000000000 ) ) ;
#138 = CARTESIAN_POINT ( 'NONE',  ( 0.0000000000000000000, 0.0000000000000000000, 0.5000000000000000000 ) ) ;
#139 = PERSON_AND_ORGANIZATION ( #49, #98 ) ;
#140 = PERSON_AND_ORGANIZATION ( #49, #98 ) ;
#141 = EDGE_CURVE ( 'NONE', #175, #77, #90, .T. ) ;
#142 = CC_DESIGN_PERSON_AND_ORGANIZATION_ASSIGNMENT ( #145, #100, ( #133 ) ) ;
#143 = ORIENTED_EDGE ( 'NONE', *, *, #132, .T. ) ;
#144 = PERSON_AND_ORGANIZATION_ROLE ( 'creator' ) ;
#145 = PERSON_AND_ORGANIZATION ( #49, #98 ) ;
#146 = CARTESIAN_POINT ( 'NONE',  ( 0.0000000000000000000, 0.0000000000000000000, -0.5000000000000000000 ) ) ;
#147 = LOCAL_TIME ( 12, 44, 21.00000000000000000, #68 ) ;
#148 = EDGE_LOOP ( 'NONE', ( #113, #65, #118, #78 ) ) ;
#149 = DIRECTION ( 'NONE',  ( -1.000000000000000000, 0.0000000000000000000, 0.0000000000000000000 ) ) ;
#150 = CC_DESIGN_DATE_AND_TIME_ASSIGNMENT ( #31, #56, ( #133 ) ) ;
#151 = DATE_AND_TIME ( #120, #36 ) ;
#152 = VERTEX_POINT ( 'NONE', #72 ) ;
#153 = ORIENTED_EDGE ( 'NONE', *, *, #14, .T. ) ;
#154 =( GEOMETRIC_REPRESENTATION_CONTEXT ( 3 ) GLOBAL_UNCERTAINTY_ASSIGNED_CONTEXT ( ( #109 ) ) GLOBAL_UNIT_ASSIGNED_CONTEXT ( ( #10, #115, #101 ) ) REPRESENTATION_CONTEXT ( 'NONE', 'WORKASPACE' ) );
#155 = ADVANCED_FACE ( 'NONE', ( #111 ), #95, .T. ) ;
#156 = CIRCLE ( 'NONE', #21, 6.499999999999999100 ) ;
#157 = APPROVAL_PERSON_ORGANIZATION ( #171, #162, #116 ) ;
#158 = APPLICATION_CONTEXT ( 'configuration controlled 3d designs of mechanical parts and assemblies' ) ;
#159 = PERSON_AND_ORGANIZATION_ROLE ( 'design_supplier' ) ;
#160 = CALENDAR_DATE ( 2017, 6, 3 ) ;
#161 = VERTEX_POINT ( 'NONE', #165 ) ;
#162 = APPROVAL ( #172, 'UNSPECIFIED' ) ;
#163 = CARTESIAN_POINT ( 'NONE',  ( 6.499999999999999100, 7.960204194457794500E-016, 0.5000000000000000000 ) ) ;
#164 = AXIS2_PLACEMENT_3D ( 'NONE', #37, #91, #19 ) ;
#165 = CARTESIAN_POINT ( 'NONE',  ( -6.499999999999999100, 0.0000000000000000000, 0.5000000000000000000 ) ) ;
#166 = LINE ( 'NONE', #20, #54 ) ;
#167 = EDGE_CURVE ( 'NONE', #161, #77, #166, .T. ) ;
#168 = CC_DESIGN_APPROVAL ( #162, ( #133 ) ) ;
#169 = APPROVAL_STATUS ( 'not_yet_approved' ) ;
#170 = SECURITY_CLASSIFICATION_LEVEL ( 'unclassified' ) ;
#171 = PERSON_AND_ORGANIZATION ( #49, #98 ) ;
#172 = APPROVAL_STATUS ( 'not_yet_approved' ) ;
#173 = CYLINDRICAL_SURFACE ( 'NONE', #108, 6.499999999999999100 ) ;
#174 = CYLINDRICAL_SURFACE ( 'NONE', #96, 6.499999999999999100 ) ;
#175 = VERTEX_POINT ( 'NONE', #40 ) ;
ENDSEC;
END-ISO-10303-21;
