ISO-10303-21;
HEADER;
FILE_DESCRIPTION (( 'STEP AP203' ),
    '1' );
FILE_NAME ('Web Model 48200_39296.step',
    '2019-01-07T15:25:13',
    ( '' ),
    ( '' ),
    'SwSTEP 2.0',
    'SolidWorks 2016',
    '' );
FILE_SCHEMA (( 'CONFIG_CONTROL_DESIGN' ));
ENDSEC;

DATA;
#1 = DIRECTION ( 'NONE',  ( 0.0000000000000000000, 0.0000000000000000000, 1.000000000000000000 ) ) ;
#2 = AXIS2_PLACEMENT_3D ( 'NONE', #94, #231, #171 ) ;
#3 = ADVANCED_BREP_SHAPE_REPRESENTATION ( 'Web Model 48200_39296', ( #163, #77 ), #6 ) ;
#4 = ORIENTED_EDGE ( 'NONE', *, *, #165, .F. ) ;
#5 = EDGE_CURVE ( 'NONE', #106, #103, #59, .T. ) ;
#6 =( GEOMETRIC_REPRESENTATION_CONTEXT ( 3 ) GLOBAL_UNCERTAINTY_ASSIGNED_CONTEXT ( ( #41 ) ) GLOBAL_UNIT_ASSIGNED_CONTEXT ( ( #101, #80, #196 ) ) REPRESENTATION_CONTEXT ( 'NONE', 'WORKASPACE' ) );
#7 = ORIENTED_EDGE ( 'NONE', *, *, #143, .T. ) ;
#8 = DIRECTION ( 'NONE',  ( 0.0000000000000000000, 1.000000000000000000, 0.0000000000000000000 ) ) ;
#9 = COORDINATED_UNIVERSAL_TIME_OFFSET ( 5, 0, .BEHIND. ) ;
#10 = PLANE ( 'NONE',  #148 ) ;
#11 = ORIENTED_EDGE ( 'NONE', *, *, #58, .F. ) ;
#12 = APPROVAL_ROLE ( '' ) ;
#13 = SECURITY_CLASSIFICATION_LEVEL ( 'unclassified' ) ;
#14 = ORIENTED_EDGE ( 'NONE', *, *, #5, .F. ) ;
#15 = EDGE_LOOP ( 'NONE', ( #224, #4, #110, #7 ) ) ;
#16 = DATE_TIME_ROLE ( 'creation_date' ) ;
#17 = APPLICATION_CONTEXT ( 'configuration controlled 3d designs of mechanical parts and assemblies' ) ;
#18 = ADVANCED_FACE ( 'NONE', ( #87 ), #146, .T. ) ;
#19 = APPLICATION_PROTOCOL_DEFINITION ( 'international standard', 'config_control_design', 1994, #219 ) ;
#20 = LOCAL_TIME ( 10, 25, 13.00000000000000000, #109 ) ;
#21 = VECTOR ( 'NONE', #93, 1000.000000000000000 ) ;
#22 = EDGE_CURVE ( 'NONE', #182, #48, #139, .T. ) ;
#23 = ORIENTED_EDGE ( 'NONE', *, *, #71, .T. ) ;
#24 = VERTEX_POINT ( 'NONE', #91 ) ;
#25 = PERSON_AND_ORGANIZATION ( #170, #189 ) ;
#26 = LINE ( 'NONE', #119, #111 ) ;
#27 = PERSON_AND_ORGANIZATION ( #170, #189 ) ;
#28 = EDGE_CURVE ( 'NONE', #50, #182, #237, .T. ) ;
#29 = DIRECTION ( 'NONE',  ( 0.0000000000000000000, 0.0000000000000000000, -1.000000000000000000 ) ) ;
#30 = VECTOR ( 'NONE', #190, 1000.000000000000000 ) ;
#31 = CC_DESIGN_PERSON_AND_ORGANIZATION_ASSIGNMENT ( #27, #134, ( #204 ) ) ;
#32 = ADVANCED_FACE ( 'NONE', ( #90 ), #10, .F. ) ;
#33 = PERSON_AND_ORGANIZATION_ROLE ( 'classification_officer' ) ;
#34 = DATE_AND_TIME ( #75, #113 ) ;
#35 = EDGE_LOOP ( 'NONE', ( #136, #57, #72, #191 ) ) ;
#36 = EDGE_CURVE ( 'NONE', #81, #50, #199, .T. ) ;
#37 = CALENDAR_DATE ( 2019, 7, 1 ) ;
#38 = EDGE_LOOP ( 'NONE', ( #66, #108, #56, #161 ) ) ;
#39 = APPROVAL_DATE_TIME ( #68, #193 ) ;
#40 = LINE ( 'NONE', #168, #132 ) ;
#41 = UNCERTAINTY_MEASURE_WITH_UNIT (LENGTH_MEASURE( 1.000000000000000100E-005 ), #101, 'distance_accuracy_value', 'NONE');
#42 = FACE_OUTER_BOUND ( 'NONE', #35, .T. ) ;
#43 = CC_DESIGN_DATE_AND_TIME_ASSIGNMENT ( #125, #16, ( #204 ) ) ;
#44 = DIRECTION ( 'NONE',  ( -0.0000000000000000000, -0.0000000000000000000, -1.000000000000000000 ) ) ;
#45 = LINE ( 'NONE', #51, #232 ) ;
#46 = ADVANCED_FACE ( 'NONE', ( #151 ), #147, .F. ) ;
#47 = PLANE ( 'NONE',  #235 ) ;
#48 = VERTEX_POINT ( 'NONE', #152 ) ;
#49 = PRODUCT_DEFINITION_FORMATION_WITH_SPECIFIED_SOURCE ( 'ANY', '', #197, .NOT_KNOWN. ) ;
#50 = VERTEX_POINT ( 'NONE', #74 ) ;
#51 = CARTESIAN_POINT ( 'NONE',  ( -6.249999999999994700, 6.250000000000012400, 1.000000000000000000 ) ) ;
#52 = ADVANCED_FACE ( 'NONE', ( #42 ), #212, .F. ) ;
#53 = AXIS2_PLACEMENT_3D ( 'NONE', #99, #76, #130 ) ;
#54 = DATE_AND_TIME ( #37, #88 ) ;
#55 = VECTOR ( 'NONE', #61, 1000.000000000000000 ) ;
#56 = ORIENTED_EDGE ( 'NONE', *, *, #69, .T. ) ;
#57 = ORIENTED_EDGE ( 'NONE', *, *, #71, .F. ) ;
#58 = EDGE_CURVE ( 'NONE', #48, #81, #117, .T. ) ;
#59 = LINE ( 'NONE', #131, #173 ) ;
#60 = SECURITY_CLASSIFICATION ( '', '', #13 ) ;
#61 = DIRECTION ( 'NONE',  ( 0.0000000000000000000, 1.000000000000000000, 0.0000000000000000000 ) ) ;
#62 = CARTESIAN_POINT ( 'NONE',  ( 0.0000000000000000000, 0.0000000000000000000, 1.000000000000000000 ) ) ;
#63 = LINE ( 'NONE', #211, #21 ) ;
#64 = CARTESIAN_POINT ( 'NONE',  ( -6.249999999999994700, -6.249999999999984900, -1.000000000000000000 ) ) ;
#65 = APPROVAL_STATUS ( 'not_yet_approved' ) ;
#66 = ORIENTED_EDGE ( 'NONE', *, *, #5, .T. ) ;
#67 = CARTESIAN_POINT ( 'NONE',  ( 0.0000000000000000000, 0.0000000000000000000, 0.0000000000000000000 ) ) ;
#68 = DATE_AND_TIME ( #201, #98 ) ;
#69 = EDGE_CURVE ( 'NONE', #24, #138, #63, .T. ) ;
#70 = PERSON_AND_ORGANIZATION ( #170, #189 ) ;
#71 = EDGE_CURVE ( 'NONE', #106, #50, #40, .T. ) ;
#72 = ORIENTED_EDGE ( 'NONE', *, *, #172, .F. ) ;
#73 = DIRECTION ( 'NONE',  ( -0.0000000000000000000, -1.000000000000000000, -0.0000000000000000000 ) ) ;
#74 = CARTESIAN_POINT ( 'NONE',  ( 6.250000000000006200, -6.249999999999984900, -1.000000000000000000 ) ) ;
#75 = CALENDAR_DATE ( 2019, 7, 1 ) ;
#76 = DIRECTION ( 'NONE',  ( 0.0000000000000000000, -1.000000000000000000, 0.0000000000000000000 ) ) ;
#77 = AXIS2_PLACEMENT_3D ( 'NONE', #67, #1, #120 ) ;
#78 = CARTESIAN_POINT ( 'NONE',  ( -6.249999999999994700, -6.249999999999984900, -1.000000000000000000 ) ) ;
#79 = CARTESIAN_POINT ( 'NONE',  ( 6.250000000000006200, -6.249999999999984900, 1.000000000000000000 ) ) ;
#80 =( NAMED_UNIT ( * ) PLANE_ANGLE_UNIT ( ) SI_UNIT ( $, .RADIAN. ) );
#81 = VERTEX_POINT ( 'NONE', #78 ) ;
#82 = APPROVAL_ROLE ( '' ) ;
#83 = CC_DESIGN_PERSON_AND_ORGANIZATION_ASSIGNMENT ( #167, #176, ( #197 ) ) ;
#84 = DIRECTION ( 'NONE',  ( 0.0000000000000000000, 0.0000000000000000000, -1.000000000000000000 ) ) ;
#85 = CALENDAR_DATE ( 2019, 7, 1 ) ;
#86 = LINE ( 'NONE', #174, #209 ) ;
#87 = FACE_OUTER_BOUND ( 'NONE', #218, .T. ) ;
#88 = LOCAL_TIME ( 10, 25, 13.00000000000000000, #150 ) ;
#89 = ORIENTED_EDGE ( 'NONE', *, *, #156, .T. ) ;
#90 = FACE_OUTER_BOUND ( 'NONE', #92, .T. ) ;
#91 = CARTESIAN_POINT ( 'NONE',  ( -6.249999999999994700, 6.250000000000012400, 1.000000000000000000 ) ) ;
#92 = EDGE_LOOP ( 'NONE', ( #155, #200, #14, #23 ) ) ;
#93 = DIRECTION ( 'NONE',  ( -0.0000000000000000000, -1.000000000000000000, -0.0000000000000000000 ) ) ;
#94 = CARTESIAN_POINT ( 'NONE',  ( -6.249999999999994700, -6.249999999999984900, 1.000000000000000000 ) ) ;
#95 = CARTESIAN_POINT ( 'NONE',  ( 6.250000000000006200, 6.250000000000012400, 1.000000000000000000 ) ) ;
#96 = SHAPE_DEFINITION_REPRESENTATION ( #198, #3 ) ;
#97 = LINE ( 'NONE', #236, #185 ) ;
#98 = LOCAL_TIME ( 10, 25, 13.00000000000000000, #142 ) ;
#99 = CARTESIAN_POINT ( 'NONE',  ( -6.249999999999994700, 6.250000000000012400, 1.000000000000000000 ) ) ;
#100 = APPROVAL_STATUS ( 'not_yet_approved' ) ;
#101 =( LENGTH_UNIT ( ) NAMED_UNIT ( * ) SI_UNIT ( .MILLI., .METRE. ) );
#102 = DIRECTION ( 'NONE',  ( -0.0000000000000000000, -0.0000000000000000000, -1.000000000000000000 ) ) ;
#103 = VERTEX_POINT ( 'NONE', #229 ) ;
#104 = CC_DESIGN_PERSON_AND_ORGANIZATION_ASSIGNMENT ( #70, #217, ( #49 ) ) ;
#105 = APPROVAL_PERSON_ORGANIZATION ( #25, #124, #82 ) ;
#106 = VERTEX_POINT ( 'NONE', #169 ) ;
#107 = ADVANCED_FACE ( 'NONE', ( #203 ), #129, .F. ) ;
#108 = ORIENTED_EDGE ( 'NONE', *, *, #184, .T. ) ;
#109 = COORDINATED_UNIVERSAL_TIME_OFFSET ( 5, 0, .BEHIND. ) ;
#110 = ORIENTED_EDGE ( 'NONE', *, *, #69, .F. ) ;
#111 = VECTOR ( 'NONE', #178, 1000.000000000000000 ) ;
#112 = CC_DESIGN_APPROVAL ( #124, ( #49 ) ) ;
#113 = LOCAL_TIME ( 10, 25, 13.00000000000000000, #214 ) ;
#114 = CC_DESIGN_SECURITY_CLASSIFICATION ( #60, ( #49 ) ) ;
#115 = DIRECTION ( 'NONE',  ( 0.0000000000000000000, 0.0000000000000000000, -1.000000000000000000 ) ) ;
#116 = CC_DESIGN_DATE_AND_TIME_ASSIGNMENT ( #133, #118, ( #60 ) ) ;
#117 = LINE ( 'NONE', #64, #128 ) ;
#118 = DATE_TIME_ROLE ( 'classification_date' ) ;
#119 = CARTESIAN_POINT ( 'NONE',  ( -6.249999999999994700, -6.249999999999984900, 1.000000000000000000 ) ) ;
#120 = DIRECTION ( 'NONE',  ( 1.000000000000000000, 0.0000000000000000000, 0.0000000000000000000 ) ) ;
#121 = CC_DESIGN_PERSON_AND_ORGANIZATION_ASSIGNMENT ( #162, #33, ( #60 ) ) ;
#122 = CARTESIAN_POINT ( 'NONE',  ( -6.249999999999994700, -6.249999999999984900, 1.000000000000000000 ) ) ;
#123 = ORIENTED_EDGE ( 'NONE', *, *, #36, .F. ) ;
#124 = APPROVAL ( #65, 'UNSPECIFIED' ) ;
#125 = DATE_AND_TIME ( #220, #180 ) ;
#126 = ORIENTED_EDGE ( 'NONE', *, *, #22, .T. ) ;
#127 = CARTESIAN_POINT ( 'NONE',  ( 0.0000000000000000000, 0.0000000000000000000, -1.000000000000000000 ) ) ;
#128 = VECTOR ( 'NONE', #73, 1000.000000000000000 ) ;
#129 = PLANE ( 'NONE',  #194 ) ;
#130 = DIRECTION ( 'NONE',  ( 0.0000000000000000000, -0.0000000000000000000, -1.000000000000000000 ) ) ;
#131 = CARTESIAN_POINT ( 'NONE',  ( 6.250000000000006200, -6.249999999999984900, 1.000000000000000000 ) ) ;
#132 = VECTOR ( 'NONE', #44, 1000.000000000000000 ) ;
#133 = DATE_AND_TIME ( #85, #20 ) ;
#134 = PERSON_AND_ORGANIZATION_ROLE ( 'creator' ) ;
#135 = APPROVAL_ROLE ( '' ) ;
#136 = ORIENTED_EDGE ( 'NONE', *, *, #36, .T. ) ;
#137 = APPROVAL_PERSON_ORGANIZATION ( #206, #233, #12 ) ;
#138 = VERTEX_POINT ( 'NONE', #122 ) ;
#139 = LINE ( 'NONE', #230, #30 ) ;
#140 = ORIENTED_EDGE ( 'NONE', *, *, #184, .F. ) ;
#141 = LINE ( 'NONE', #95, #183 ) ;
#142 = COORDINATED_UNIVERSAL_TIME_OFFSET ( 5, 0, .BEHIND. ) ;
#143 = EDGE_CURVE ( 'NONE', #24, #48, #45, .T. ) ;
#144 = CC_DESIGN_APPROVAL ( #193, ( #60 ) ) ;
#145 = ORIENTED_EDGE ( 'NONE', *, *, #143, .F. ) ;
#146 = PLANE ( 'NONE',  #213 ) ;
#147 = PLANE ( 'NONE',  #53 ) ;
#148 = AXIS2_PLACEMENT_3D ( 'NONE', #79, #215, #149 ) ;
#149 = DIRECTION ( 'NONE',  ( 0.0000000000000000000, 0.0000000000000000000, 1.000000000000000000 ) ) ;
#150 = COORDINATED_UNIVERSAL_TIME_OFFSET ( 5, 0, .BEHIND. ) ;
#151 = FACE_OUTER_BOUND ( 'NONE', #207, .T. ) ;
#152 = CARTESIAN_POINT ( 'NONE',  ( -6.249999999999994700, 6.250000000000012400, -1.000000000000000000 ) ) ;
#153 = DIRECTION ( 'NONE',  ( -1.000000000000000000, -0.0000000000000000000, -0.0000000000000000000 ) ) ;
#154 = DIRECTION ( 'NONE',  ( 1.000000000000000000, 0.0000000000000000000, 0.0000000000000000000 ) ) ;
#155 = ORIENTED_EDGE ( 'NONE', *, *, #28, .T. ) ;
#156 = EDGE_CURVE ( 'NONE', #103, #182, #141, .T. ) ;
#157 = ADVANCED_FACE ( 'NONE', ( #164 ), #47, .F. ) ;
#158 = APPROVAL_STATUS ( 'not_yet_approved' ) ;
#159 = CARTESIAN_POINT ( 'NONE',  ( 6.250000000000006200, 6.250000000000012400, -1.000000000000000000 ) ) ;
#160 = PERSON_AND_ORGANIZATION ( #170, #189 ) ;
#161 = ORIENTED_EDGE ( 'NONE', *, *, #172, .T. ) ;
#162 = PERSON_AND_ORGANIZATION ( #170, #189 ) ;
#163 = MANIFOLD_SOLID_BREP ( 'Boss-Extrude1', #225 ) ;
#164 = FACE_OUTER_BOUND ( 'NONE', #15, .T. ) ;
#165 = EDGE_CURVE ( 'NONE', #138, #81, #97, .T. ) ;
#166 = CARTESIAN_POINT ( 'NONE',  ( 6.250000000000006200, -6.249999999999984900, -1.000000000000000000 ) ) ;
#167 = PERSON_AND_ORGANIZATION ( #170, #189 ) ;
#168 = CARTESIAN_POINT ( 'NONE',  ( 6.250000000000006200, -6.249999999999984900, 1.000000000000000000 ) ) ;
#169 = CARTESIAN_POINT ( 'NONE',  ( 6.250000000000006200, -6.249999999999984900, 1.000000000000000000 ) ) ;
#170 = PERSON ( 'UNSPECIFIED', 'UNSPECIFIED', 'UNSPECIFIED', ('UNSPECIFIED'), ('UNSPECIFIED'), ('UNSPECIFIED') ) ;
#171 = DIRECTION ( 'NONE',  ( 0.0000000000000000000, -0.0000000000000000000, 1.000000000000000000 ) ) ;
#172 = EDGE_CURVE ( 'NONE', #138, #106, #26, .T. ) ;
#173 = VECTOR ( 'NONE', #8, 1000.000000000000000 ) ;
#174 = CARTESIAN_POINT ( 'NONE',  ( -6.249999999999994700, 6.250000000000012400, 1.000000000000000000 ) ) ;
#175 = DESIGN_CONTEXT ( 'detailed design', #219, 'design' ) ;
#176 = PERSON_AND_ORGANIZATION_ROLE ( 'design_owner' ) ;
#177 = CC_DESIGN_PERSON_AND_ORGANIZATION_ASSIGNMENT ( #160, #234, ( #49 ) ) ;
#178 = DIRECTION ( 'NONE',  ( 1.000000000000000000, 0.0000000000000000000, 0.0000000000000000000 ) ) ;
#179 = APPLICATION_PROTOCOL_DEFINITION ( 'international standard', 'config_control_design', 1994, #17 ) ;
#180 = LOCAL_TIME ( 10, 25, 13.00000000000000000, #9 ) ;
#181 = PERSON_AND_ORGANIZATION ( #170, #189 ) ;
#182 = VERTEX_POINT ( 'NONE', #159 ) ;
#183 = VECTOR ( 'NONE', #227, 1000.000000000000000 ) ;
#184 = EDGE_CURVE ( 'NONE', #103, #24, #86, .T. ) ;
#185 = VECTOR ( 'NONE', #102, 1000.000000000000000 ) ;
#186 = CARTESIAN_POINT ( 'NONE',  ( -6.249999999999994700, -6.249999999999984900, -1.000000000000000000 ) ) ;
#187 = ORIENTED_EDGE ( 'NONE', *, *, #28, .F. ) ;
#188 = DIRECTION ( 'NONE',  ( 1.000000000000000000, 0.0000000000000000000, 0.0000000000000000000 ) ) ;
#189 = ORGANIZATION ( 'UNSPECIFIED', 'UNSPECIFIED', '' ) ;
#190 = DIRECTION ( 'NONE',  ( -1.000000000000000000, -0.0000000000000000000, -0.0000000000000000000 ) ) ;
#191 = ORIENTED_EDGE ( 'NONE', *, *, #165, .T. ) ;
#192 = DIRECTION ( 'NONE',  ( -1.000000000000000000, 0.0000000000000000000, -0.0000000000000000000 ) ) ;
#193 = APPROVAL ( #158, 'UNSPECIFIED' ) ;
#194 = AXIS2_PLACEMENT_3D ( 'NONE', #62, #84, #192 ) ;
#195 = DIRECTION ( 'NONE',  ( -0.0000000000000000000, -0.0000000000000000000, -1.000000000000000000 ) ) ;
#196 =( NAMED_UNIT ( * ) SI_UNIT ( $, .STERADIAN. ) SOLID_ANGLE_UNIT ( ) );
#197 = PRODUCT ( 'Web Model 48200_39296', 'Web Model 48200_39296', '', ( #216 ) ) ;
#198 = PRODUCT_DEFINITION_SHAPE ( 'NONE', 'NONE',  #204 ) ;
#199 = LINE ( 'NONE', #186, #221 ) ;
#200 = ORIENTED_EDGE ( 'NONE', *, *, #156, .F. ) ;
#201 = CALENDAR_DATE ( 2019, 7, 1 ) ;
#202 = CARTESIAN_POINT ( 'NONE',  ( -6.249999999999994700, -6.249999999999984900, 1.000000000000000000 ) ) ;
#203 = FACE_OUTER_BOUND ( 'NONE', #38, .T. ) ;
#204 = PRODUCT_DEFINITION ( 'UNKNOWN', '', #49, #175 ) ;
#205 = ORIENTED_EDGE ( 'NONE', *, *, #22, .F. ) ;
#206 = PERSON_AND_ORGANIZATION ( #170, #189 ) ;
#207 = EDGE_LOOP ( 'NONE', ( #126, #145, #140, #89 ) ) ;
#208 = APPROVAL_PERSON_ORGANIZATION ( #181, #193, #135 ) ;
#209 = VECTOR ( 'NONE', #153, 1000.000000000000000 ) ;
#210 = DIRECTION ( 'NONE',  ( -1.000000000000000000, 0.0000000000000000000, -0.0000000000000000000 ) ) ;
#211 = CARTESIAN_POINT ( 'NONE',  ( -6.249999999999994700, -6.249999999999984900, 1.000000000000000000 ) ) ;
#212 = PLANE ( 'NONE',  #2 ) ;
#213 = AXIS2_PLACEMENT_3D ( 'NONE', #127, #115, #210 ) ;
#214 = COORDINATED_UNIVERSAL_TIME_OFFSET ( 5, 0, .BEHIND. ) ;
#215 = DIRECTION ( 'NONE',  ( -1.000000000000000000, 0.0000000000000000000, 0.0000000000000000000 ) ) ;
#216 = MECHANICAL_CONTEXT ( 'NONE', #17, 'mechanical' ) ;
#217 = PERSON_AND_ORGANIZATION_ROLE ( 'creator' ) ;
#218 = EDGE_LOOP ( 'NONE', ( #187, #123, #11, #205 ) ) ;
#219 = APPLICATION_CONTEXT ( 'configuration controlled 3d designs of mechanical parts and assemblies' ) ;
#220 = CALENDAR_DATE ( 2019, 7, 1 ) ;
#221 = VECTOR ( 'NONE', #188, 1000.000000000000000 ) ;
#222 = APPROVAL_DATE_TIME ( #34, #124 ) ;
#223 = CC_DESIGN_APPROVAL ( #233, ( #204 ) ) ;
#224 = ORIENTED_EDGE ( 'NONE', *, *, #58, .T. ) ;
#225 = CLOSED_SHELL ( 'NONE', ( #32, #46, #157, #52, #107, #18 ) ) ;
#226 = PRODUCT_RELATED_PRODUCT_CATEGORY ( 'detail', '', ( #197 ) ) ;
#227 = DIRECTION ( 'NONE',  ( -0.0000000000000000000, -0.0000000000000000000, -1.000000000000000000 ) ) ;
#228 = APPROVAL_DATE_TIME ( #54, #233 ) ;
#229 = CARTESIAN_POINT ( 'NONE',  ( 6.250000000000006200, 6.250000000000012400, 1.000000000000000000 ) ) ;
#230 = CARTESIAN_POINT ( 'NONE',  ( -6.249999999999994700, 6.250000000000012400, -1.000000000000000000 ) ) ;
#231 = DIRECTION ( 'NONE',  ( 0.0000000000000000000, 1.000000000000000000, 0.0000000000000000000 ) ) ;
#232 = VECTOR ( 'NONE', #195, 1000.000000000000000 ) ;
#233 = APPROVAL ( #100, 'UNSPECIFIED' ) ;
#234 = PERSON_AND_ORGANIZATION_ROLE ( 'design_supplier' ) ;
#235 = AXIS2_PLACEMENT_3D ( 'NONE', #202, #154, #29 ) ;
#236 = CARTESIAN_POINT ( 'NONE',  ( -6.249999999999994700, -6.249999999999984900, 1.000000000000000000 ) ) ;
#237 = LINE ( 'NONE', #166, #55 ) ;
ENDSEC;
END-ISO-10303-21;
