ISO-10303-21;
HEADER;
FILE_DESCRIPTION (( 'STEP AP214' ),
    '1' );
FILE_NAME ('4806-E0W.STEP',
    '2009-12-21T17:14:52',
    ( ' ' ),
    ( ' ' ),
    'SwSTEP 2.0',
    'SolidWorks 2009',
    '' );
FILE_SCHEMA (( 'AUTOMOTIVE_DESIGN' ));
ENDSEC;

DATA;
#1 =( LENGTH_UNIT ( ) NAMED_UNIT ( * ) SI_UNIT ( .MILLI., .METRE. ) );
#2 =( NAMED_UNIT ( * ) PLANE_ANGLE_UNIT ( ) SI_UNIT ( $, .RADIAN. ) );
#3 = UNCERTAINTY_MEASURE_WITH_UNIT (LENGTH_MEASURE( 1.000000000000000100E-005 ), #1, 'distance_accuracy_value', 'NONE');
#4 =( NAMED_UNIT ( * ) SI_UNIT ( $, .STERADIAN. ) SOLID_ANGLE_UNIT ( ) );
#5 = CARTESIAN_POINT ( 'NONE',  ( 0.0000000000000000000, 0.0000000000000000000, 2.795878800326650400 ) ) ;
#6 = AXIS2_PLACEMENT_3D ( 'NONE', #5, #19, #17 ) ;
#7 = CIRCLE ( 'NONE', #6, 12.69999999999999900 ) ;
#8 = SURFACE_SIDE_STYLE ('',( #9 ) ) ;
#9 = SURFACE_STYLE_FILL_AREA ( #32 ) ;
#10 = DIRECTION ( 'NONE',  ( 1.000000000000000000, 0.0000000000000000000, 0.0000000000000000000 ) ) ;
#11 = DIRECTION ( 'NONE',  ( -0.0000000000000000000, -0.0000000000000000000, 1.000000000000000000 ) ) ;
#12 = CARTESIAN_POINT ( 'NONE',  ( 0.0000000000000000000, 0.0000000000000000000, 8.221274470102674300 ) ) ;
#13 = AXIS2_PLACEMENT_3D ( 'NONE', #12, #11, #10 ) ;
#14 = CYLINDRICAL_SURFACE ( 'NONE', #13, 12.69999999999999900 ) ;
#15 =( GEOMETRIC_REPRESENTATION_CONTEXT ( 3 ) GLOBAL_UNCERTAINTY_ASSIGNED_CONTEXT ( ( #3 ) ) GLOBAL_UNIT_ASSIGNED_CONTEXT ( ( #1, #2, #4 ) ) REPRESENTATION_CONTEXT ( 'NONE', 'WORKASPACE' ) );
#16 = SURFACE_STYLE_USAGE ( .BOTH. , #8 ) ;
#17 = DIRECTION ( 'NONE',  ( 1.000000000000000000, 0.0000000000000000000, 0.0000000000000000000 ) ) ;
#18 = PRESENTATION_STYLE_ASSIGNMENT (( #16 ) ) ;
#19 = DIRECTION ( 'NONE',  ( -0.0000000000000000000, -0.0000000000000000000, 1.000000000000000000 ) ) ;
#20 = PRESENTATION_LAYER_ASSIGNMENT (  '', '', ( #21 ) ) ;
#21 = STYLED_ITEM ( 'NONE', ( #18 ), #229 ) ;
#22 =( LENGTH_UNIT ( ) NAMED_UNIT ( * ) SI_UNIT ( .MILLI., .METRE. ) );
#23 = MECHANICAL_DESIGN_GEOMETRIC_PRESENTATION_REPRESENTATION (  '', ( #21 ), #64 ) ;
#24 = UNCERTAINTY_MEASURE_WITH_UNIT (LENGTH_MEASURE( 1.000000000000000100E-005 ), #22, 'distance_accuracy_value', 'NONE');
#25 =( NAMED_UNIT ( * ) SI_UNIT ( $, .STERADIAN. ) SOLID_ANGLE_UNIT ( ) );
#26 =( NAMED_UNIT ( * ) PLANE_ANGLE_UNIT ( ) SI_UNIT ( $, .RADIAN. ) );
#27 =( LENGTH_UNIT ( ) NAMED_UNIT ( * ) SI_UNIT ( .MILLI., .METRE. ) );
#28 = COLOUR_RGB ( '',0.9568627450980391500, 0.9490196078431372100, 0.9607843137254902200 ) ;
#29 = PRESENTATION_LAYER_ASSIGNMENT (  '', '', ( #30 ) ) ;
#30 = STYLED_ITEM ( 'NONE', ( #31 ), #223 ) ;
#31 = PRESENTATION_STYLE_ASSIGNMENT (( #52 ) ) ;
#32 = FILL_AREA_STYLE ('',( #33 ) ) ;
#33 = FILL_AREA_STYLE_COLOUR ( '', #34 ) ;
#34 = COLOUR_RGB ( '',0.9568627450980391500, 0.9490196078431372100, 0.9607843137254902200 ) ;
#35 = FACE_OUTER_BOUND ( 'NONE', #251, .T. ) ;
#36 = CARTESIAN_POINT ( 'NONE',  ( -1.555250069354419500E-015, -12.70000000000000300, 2.795878800326641500 ) ) ;
#37 = DIRECTION ( 'NONE',  ( -1.224606353822377000E-016, -1.000000000000000000, 0.0000000000000000000 ) ) ;
#38 = CIRCLE ( 'NONE', #57, 51.46000000000000800 ) ;
#39 = DIRECTION ( 'NONE',  ( 1.000000000000000000, 0.0000000000000000000, 0.0000000000000000000 ) ) ;
#40 = DIRECTION ( 'NONE',  ( 0.0000000000000000000, -0.0000000000000000000, 1.000000000000000000 ) ) ;
#41 = CARTESIAN_POINT ( 'NONE',  ( 0.0000000000000000000, 7.347880794884119700E-016, -2.795878800326650400 ) ) ;
#42 = PLANE ( 'NONE',  #50 ) ;
#43 = MECHANICAL_DESIGN_GEOMETRIC_PRESENTATION_REPRESENTATION (  '', ( #30 ), #51 ) ;
#44 = FILL_AREA_STYLE_COLOUR ( '', #28 ) ;
#45 = SURFACE_STYLE_FILL_AREA ( #46 ) ;
#46 = FILL_AREA_STYLE ('',( #44 ) ) ;
#47 =( NAMED_UNIT ( * ) PLANE_ANGLE_UNIT ( ) SI_UNIT ( $, .RADIAN. ) );
#48 = UNCERTAINTY_MEASURE_WITH_UNIT (LENGTH_MEASURE( 1.000000000000000100E-005 ), #27, 'distance_accuracy_value', 'NONE');
#49 = FACE_OUTER_BOUND ( 'NONE', #224, .T. ) ;
#50 = AXIS2_PLACEMENT_3D ( 'NONE', #41, #40, #39 ) ;
#51 =( GEOMETRIC_REPRESENTATION_CONTEXT ( 3 ) GLOBAL_UNCERTAINTY_ASSIGNED_CONTEXT ( ( #48 ) ) GLOBAL_UNIT_ASSIGNED_CONTEXT ( ( #27, #47, #54 ) ) REPRESENTATION_CONTEXT ( 'NONE', 'WORKASPACE' ) );
#52 = SURFACE_STYLE_USAGE ( .BOTH. , #53 ) ;
#53 = SURFACE_SIDE_STYLE ('',( #45 ) ) ;
#54 =( NAMED_UNIT ( * ) SI_UNIT ( $, .STERADIAN. ) SOLID_ANGLE_UNIT ( ) );
#55 = DIRECTION ( 'NONE',  ( -1.000000000000000000, 1.224606353822377300E-016, 0.0000000000000000000 ) ) ;
#56 = CARTESIAN_POINT ( 'NONE',  ( 0.0000000000000000000, 0.0000000000000000000, 52.66412119967334600 ) ) ;
#57 = AXIS2_PLACEMENT_3D ( 'NONE', #56, #55, #37 ) ;
#58 = CARTESIAN_POINT ( 'NONE',  ( 0.0000000000000000000, 0.0000000000000000000, 8.221274470102674300 ) ) ;
#59 = AXIS2_PLACEMENT_3D ( 'NONE', #58, #67, #66 ) ;
#60 = DIRECTION ( 'NONE',  ( -0.0000000000000000000, -0.0000000000000000000, 1.000000000000000000 ) ) ;
#61 = CARTESIAN_POINT ( 'NONE',  ( 0.0000000000000000000, 0.0000000000000000000, 2.795878800326650400 ) ) ;
#62 = AXIS2_PLACEMENT_3D ( 'NONE', #61, #60, #78 ) ;
#63 = CIRCLE ( 'NONE', #62, 12.69999999999999900 ) ;
#64 =( GEOMETRIC_REPRESENTATION_CONTEXT ( 3 ) GLOBAL_UNCERTAINTY_ASSIGNED_CONTEXT ( ( #24 ) ) GLOBAL_UNIT_ASSIGNED_CONTEXT ( ( #22, #26, #25 ) ) REPRESENTATION_CONTEXT ( 'NONE', 'WORKASPACE' ) );
#65 = UNCERTAINTY_MEASURE_WITH_UNIT (LENGTH_MEASURE( 1.000000000000000100E-005 ), #82, 'distance_accuracy_value', 'NONE');
#66 = DIRECTION ( 'NONE',  ( 1.000000000000000000, 0.0000000000000000000, 0.0000000000000000000 ) ) ;
#67 = DIRECTION ( 'NONE',  ( -0.0000000000000000000, -0.0000000000000000000, 1.000000000000000000 ) ) ;
#68 = CYLINDRICAL_SURFACE ( 'NONE', #59, 12.69999999999999900 ) ;
#69 = DIRECTION ( 'NONE',  ( 1.000000000000000000, 0.0000000000000000000, 0.0000000000000000000 ) ) ;
#70 =( NAMED_UNIT ( * ) SI_UNIT ( $, .STERADIAN. ) SOLID_ANGLE_UNIT ( ) );
#71 = AXIS2_PLACEMENT_3D ( 'NONE', #88, #85, #95 ) ;
#72 = CIRCLE ( 'NONE', #71, 12.69999999999999900 ) ;
#73 = STYLED_ITEM ( 'NONE', ( #74 ), #243 ) ;
#74 = PRESENTATION_STYLE_ASSIGNMENT (( #75 ) ) ;
#75 = SURFACE_STYLE_USAGE ( .BOTH. , #91 ) ;
#76 = CARTESIAN_POINT ( 'NONE',  ( 0.0000000000000000000, 12.70000000000000300, 2.795878800326641500 ) ) ;
#77 =( NAMED_UNIT ( * ) PLANE_ANGLE_UNIT ( ) SI_UNIT ( $, .RADIAN. ) );
#78 = DIRECTION ( 'NONE',  ( 1.000000000000000000, 0.0000000000000000000, 0.0000000000000000000 ) ) ;
#79 = FILL_AREA_STYLE_COLOUR ( '', #80 ) ;
#80 = COLOUR_RGB ( '',0.9568627450980391500, 0.9490196078431372100, 0.9607843137254902200 ) ;
#81 = FACE_OUTER_BOUND ( 'NONE', #239, .T. ) ;
#82 =( LENGTH_UNIT ( ) NAMED_UNIT ( * ) SI_UNIT ( .MILLI., .METRE. ) );
#83 = AXIS2_PLACEMENT_3D ( 'NONE', #86, #94, #69 ) ;
#84 = CIRCLE ( 'NONE', #83, 12.69999999999999900 ) ;
#85 = DIRECTION ( 'NONE',  ( -0.0000000000000000000, -0.0000000000000000000, 1.000000000000000000 ) ) ;
#86 = CARTESIAN_POINT ( 'NONE',  ( 0.0000000000000000000, 0.0000000000000000000, 2.795878800326650400 ) ) ;
#87 = CARTESIAN_POINT ( 'NONE',  ( 12.69999999999999900, 0.0000000000000000000, 2.795878800326650400 ) ) ;
#88 = CARTESIAN_POINT ( 'NONE',  ( 0.0000000000000000000, 0.0000000000000000000, 2.795878800326650400 ) ) ;
#89 = MECHANICAL_DESIGN_GEOMETRIC_PRESENTATION_REPRESENTATION (  '', ( #73 ), #150 ) ;
#90 = PRESENTATION_LAYER_ASSIGNMENT (  '', '', ( #73 ) ) ;
#91 = SURFACE_SIDE_STYLE ('',( #92 ) ) ;
#92 = SURFACE_STYLE_FILL_AREA ( #93 ) ;
#93 = FILL_AREA_STYLE ('',( #79 ) ) ;
#94 = DIRECTION ( 'NONE',  ( -0.0000000000000000000, -0.0000000000000000000, 1.000000000000000000 ) ) ;
#95 = DIRECTION ( 'NONE',  ( 1.000000000000000000, 0.0000000000000000000, 0.0000000000000000000 ) ) ;
#96 =( GEOMETRIC_REPRESENTATION_CONTEXT ( 3 ) GLOBAL_UNCERTAINTY_ASSIGNED_CONTEXT ( ( #153 ) ) GLOBAL_UNIT_ASSIGNED_CONTEXT ( ( #106, #141, #154 ) ) REPRESENTATION_CONTEXT ( 'NONE', 'WORKASPACE' ) );
#97 = SPHERICAL_SURFACE ( 'NONE', #99, 51.46000000000000800 ) ;
#98 = CARTESIAN_POINT ( 'NONE',  ( 0.0000000000000000000, 0.0000000000000000000, 52.66412119967334600 ) ) ;
#99 = AXIS2_PLACEMENT_3D ( 'NONE', #98, #136, #135 ) ;
#100 = CARTESIAN_POINT ( 'NONE',  ( 0.0000000000000000000, 0.0000000000000000000, -2.795878800326650400 ) ) ;
#101 = DIRECTION ( 'NONE',  ( -0.0000000000000000000, -0.0000000000000000000, 1.000000000000000000 ) ) ;
#102 = VECTOR ( 'NONE', #101, 1000.000000000000000 ) ;
#103 = STYLED_ITEM ( 'NONE', ( #104 ), #250 ) ;
#104 = PRESENTATION_STYLE_ASSIGNMENT (( #105 ) ) ;
#105 = SURFACE_STYLE_USAGE ( .BOTH. , #137 ) ;
#106 =( LENGTH_UNIT ( ) NAMED_UNIT ( * ) SI_UNIT ( .MILLI., .METRE. ) );
#107 = LINE ( 'NONE', #151, #102 ) ;
#108 = FILL_AREA_STYLE_COLOUR ( '', #109 ) ;
#109 = COLOUR_RGB ( '',0.7960784313725489700, 0.8235294117647058400, 0.9372549019607843100 ) ;
#110 = AXIS2_PLACEMENT_3D ( 'NONE', #120, #143, #155 ) ;
#111 = CARTESIAN_POINT ( 'NONE',  ( -12.69999999999999900, 1.555250069354419100E-015, -2.795878800326650400 ) ) ;
#112 = CARTESIAN_POINT ( 'NONE',  ( 12.69999999999999900, 0.0000000000000000000, -2.795878800326650400 ) ) ;
#113 = SURFACE_STYLE_USAGE ( .BOTH. , #114 ) ;
#114 = SURFACE_SIDE_STYLE ('',( #115 ) ) ;
#115 = SURFACE_STYLE_FILL_AREA ( #116 ) ;
#116 = FILL_AREA_STYLE ('',( #125 ) ) ;
#117 = COLOUR_RGB ( '',0.9568627450980391500, 0.9490196078431372100, 0.9607843137254902200 ) ;
#118 = FACE_OUTER_BOUND ( 'NONE', #258, .T. ) ;
#119 = UNCERTAINTY_MEASURE_WITH_UNIT (LENGTH_MEASURE( 1.000000000000000100E-005 ), #140, 'distance_accuracy_value', 'NONE');
#120 = CARTESIAN_POINT ( 'NONE',  ( 0.0000000000000000000, 0.0000000000000000000, 52.66412119967334600 ) ) ;
#121 = DIRECTION ( 'NONE',  ( -0.0000000000000000000, -0.0000000000000000000, 1.000000000000000000 ) ) ;
#122 = VECTOR ( 'NONE', #121, 1000.000000000000000 ) ;
#123 = CARTESIAN_POINT ( 'NONE',  ( 12.69999999999999900, 0.0000000000000000000, 8.221274470102674300 ) ) ;
#124 = LINE ( 'NONE', #123, #122 ) ;
#125 = FILL_AREA_STYLE_COLOUR ( '', #117 ) ;
#126 = SPHERICAL_SURFACE ( 'NONE', #110, 51.46000000000000800 ) ;
#127 = CIRCLE ( 'NONE', #128, 12.69999999999999900 ) ;
#128 = AXIS2_PLACEMENT_3D ( 'NONE', #100, #149, #148 ) ;
#129 = DIRECTION ( 'NONE',  ( 1.000000000000000000, 0.0000000000000000000, 0.0000000000000000000 ) ) ;
#130 = DIRECTION ( 'NONE',  ( -0.0000000000000000000, -0.0000000000000000000, 1.000000000000000000 ) ) ;
#131 = CARTESIAN_POINT ( 'NONE',  ( 0.0000000000000000000, 0.0000000000000000000, -2.795878800326650400 ) ) ;
#132 = AXIS2_PLACEMENT_3D ( 'NONE', #131, #130, #129 ) ;
#133 = CIRCLE ( 'NONE', #132, 12.69999999999999900 ) ;
#134 =( GEOMETRIC_REPRESENTATION_CONTEXT ( 3 ) GLOBAL_UNCERTAINTY_ASSIGNED_CONTEXT ( ( #166 ) ) GLOBAL_UNIT_ASSIGNED_CONTEXT ( ( #162, #164, #169 ) ) REPRESENTATION_CONTEXT ( 'NONE', 'WORKASPACE' ) );
#135 = DIRECTION ( 'NONE',  ( 0.0000000000000000000, 1.000000000000000000, 0.0000000000000000000 ) ) ;
#136 = DIRECTION ( 'NONE',  ( -1.000000000000000000, 0.0000000000000000000, 0.0000000000000000000 ) ) ;
#137 = SURFACE_SIDE_STYLE ('',( #138 ) ) ;
#138 = SURFACE_STYLE_FILL_AREA ( #139 ) ;
#139 = FILL_AREA_STYLE ('',( #108 ) ) ;
#140 =( LENGTH_UNIT ( ) NAMED_UNIT ( * ) SI_UNIT ( .MILLI., .METRE. ) );
#141 =( NAMED_UNIT ( * ) PLANE_ANGLE_UNIT ( ) SI_UNIT ( $, .RADIAN. ) );
#142 =( GEOMETRIC_REPRESENTATION_CONTEXT ( 3 ) GLOBAL_UNCERTAINTY_ASSIGNED_CONTEXT ( ( #119 ) ) GLOBAL_UNIT_ASSIGNED_CONTEXT ( ( #140, #159, #158 ) ) REPRESENTATION_CONTEXT ( 'NONE', 'WORKASPACE' ) );
#143 = DIRECTION ( 'NONE',  ( -1.000000000000000000, 0.0000000000000000000, 0.0000000000000000000 ) ) ;
#144 = MECHANICAL_DESIGN_GEOMETRIC_PRESENTATION_REPRESENTATION (  '', ( #146 ), #96 ) ;
#145 = PRESENTATION_LAYER_ASSIGNMENT (  '', '', ( #146 ) ) ;
#146 = STYLED_ITEM ( 'NONE', ( #147 ), #257 ) ;
#147 = PRESENTATION_STYLE_ASSIGNMENT (( #113 ) ) ;
#148 = DIRECTION ( 'NONE',  ( 1.000000000000000000, 0.0000000000000000000, 0.0000000000000000000 ) ) ;
#149 = DIRECTION ( 'NONE',  ( -0.0000000000000000000, -0.0000000000000000000, 1.000000000000000000 ) ) ;
#150 =( GEOMETRIC_REPRESENTATION_CONTEXT ( 3 ) GLOBAL_UNCERTAINTY_ASSIGNED_CONTEXT ( ( #65 ) ) GLOBAL_UNIT_ASSIGNED_CONTEXT ( ( #82, #77, #70 ) ) REPRESENTATION_CONTEXT ( 'NONE', 'WORKASPACE' ) );
#151 = CARTESIAN_POINT ( 'NONE',  ( -12.69999999999999900, 1.555250069354419100E-015, 8.221274470102674300 ) ) ;
#152 = CARTESIAN_POINT ( 'NONE',  ( -12.69999999999999900, 1.555250069354419100E-015, 2.795878800326650400 ) ) ;
#153 = UNCERTAINTY_MEASURE_WITH_UNIT (LENGTH_MEASURE( 1.000000000000000100E-005 ), #106, 'distance_accuracy_value', 'NONE');
#154 =( NAMED_UNIT ( * ) SI_UNIT ( $, .STERADIAN. ) SOLID_ANGLE_UNIT ( ) );
#155 = DIRECTION ( 'NONE',  ( 0.0000000000000000000, 1.000000000000000000, 0.0000000000000000000 ) ) ;
#156 = MECHANICAL_DESIGN_GEOMETRIC_PRESENTATION_REPRESENTATION (  '', ( #103 ), #142 ) ;
#157 = PRESENTATION_LAYER_ASSIGNMENT (  '', '', ( #103 ) ) ;
#158 =( NAMED_UNIT ( * ) SI_UNIT ( $, .STERADIAN. ) SOLID_ANGLE_UNIT ( ) );
#159 =( NAMED_UNIT ( * ) PLANE_ANGLE_UNIT ( ) SI_UNIT ( $, .RADIAN. ) );
#160 = CIRCLE ( 'NONE', #165, 51.46000000000000800 ) ;
#161 = DIRECTION ( 'NONE',  ( 1.000000000000000000, 0.0000000000000000000, 0.0000000000000000000 ) ) ;
#162 =( LENGTH_UNIT ( ) NAMED_UNIT ( * ) SI_UNIT ( .MILLI., .METRE. ) );
#163 = CARTESIAN_POINT ( 'NONE',  ( 0.0000000000000000000, 3.150912148384976700E-015, 1.204121199673342700 ) ) ;
#164 =( NAMED_UNIT ( * ) PLANE_ANGLE_UNIT ( ) SI_UNIT ( $, .RADIAN. ) );
#165 = AXIS2_PLACEMENT_3D ( 'NONE', #168, #161, #167 ) ;
#166 = UNCERTAINTY_MEASURE_WITH_UNIT (LENGTH_MEASURE( 1.000000000000000100E-005 ), #162, 'distance_accuracy_value', 'NONE');
#167 = DIRECTION ( 'NONE',  ( 0.0000000000000000000, 0.0000000000000000000, -1.000000000000000000 ) ) ;
#168 = CARTESIAN_POINT ( 'NONE',  ( 0.0000000000000000000, 0.0000000000000000000, 52.66412119967334600 ) ) ;
#169 =( NAMED_UNIT ( * ) SI_UNIT ( $, .STERADIAN. ) SOLID_ANGLE_UNIT ( ) );
#170 =( NAMED_UNIT ( * ) SI_UNIT ( $, .STERADIAN. ) SOLID_ANGLE_UNIT ( ) );
#171 = CARTESIAN_POINT ( 'NONE',  ( 0.0000000000000000000, 0.0000000000000000000, 0.0000000000000000000 ) ) ;
#172 = DIRECTION ( 'NONE',  ( 0.0000000000000000000, 0.0000000000000000000, 1.000000000000000000 ) ) ;
#173 =( NAMED_UNIT ( * ) PLANE_ANGLE_UNIT ( ) SI_UNIT ( $, .RADIAN. ) );
#174 = SURFACE_STYLE_USAGE ( .BOTH. , #175 ) ;
#175 = SURFACE_SIDE_STYLE ('',( #176 ) ) ;
#176 = SURFACE_STYLE_FILL_AREA ( #200 ) ;
#177 = MECHANICAL_DESIGN_GEOMETRIC_PRESENTATION_REPRESENTATION (  '', ( #191 ), #199 ) ;
#178 = COLOUR_RGB ( '',0.7960784313725489700, 0.8235294117647058400, 0.9372549019607843100 ) ;
#179 = PRODUCT_CONTEXT ( 'NONE', #198, 'mechanical' ) ;
#180 = APPLICATION_PROTOCOL_DEFINITION ( 'draft international standard', 'automotive_design', 1998, #198 ) ;
#181 = PRODUCT_DEFINITION_SHAPE ( 'NONE', 'NONE',  #184 ) ;
#182 = PRODUCT_RELATED_PRODUCT_CATEGORY ( 'part', '', ( #189 ) ) ;
#183 = PRODUCT_DEFINITION_FORMATION_WITH_SPECIFIED_SOURCE ( 'ANY', '', #189, .NOT_KNOWN. ) ;
#184 = PRODUCT_DEFINITION ( 'UNKNOWN', '', #183, #185 ) ;
#185 = PRODUCT_DEFINITION_CONTEXT ( 'detailed design', #187, 'design' ) ;
#186 = APPLICATION_PROTOCOL_DEFINITION ( 'draft international standard', 'automotive_design', 1998, #187 ) ;
#187 = APPLICATION_CONTEXT ( 'automotive_design' ) ;
#188 = SHAPE_DEFINITION_REPRESENTATION ( #181, #196 ) ;
#189 = PRODUCT ( '4806-E0W', '4806-E0W', '', ( #179 ) ) ;
#190 = PRESENTATION_LAYER_ASSIGNMENT (  '', '', ( #191 ) ) ;
#191 = STYLED_ITEM ( 'NONE', ( #192 ), #196 ) ;
#192 = PRESENTATION_STYLE_ASSIGNMENT (( #174 ) ) ;
#193 = AXIS2_PLACEMENT_3D ( 'NONE', #171, #172, #194 ) ;
#194 = DIRECTION ( 'NONE',  ( 1.000000000000000000, 0.0000000000000000000, 0.0000000000000000000 ) ) ;
#195 =( LENGTH_UNIT ( ) NAMED_UNIT ( * ) SI_UNIT ( .MILLI., .METRE. ) );
#196 = ADVANCED_BREP_SHAPE_REPRESENTATION ( '4806-E0W', ( #250, #193 ), #134 ) ;
#197 = UNCERTAINTY_MEASURE_WITH_UNIT (LENGTH_MEASURE( 1.000000000000000100E-005 ), #195, 'distance_accuracy_value', 'NONE');
#198 = APPLICATION_CONTEXT ( 'automotive_design' ) ;
#199 =( GEOMETRIC_REPRESENTATION_CONTEXT ( 3 ) GLOBAL_UNCERTAINTY_ASSIGNED_CONTEXT ( ( #197 ) ) GLOBAL_UNIT_ASSIGNED_CONTEXT ( ( #195, #173, #170 ) ) REPRESENTATION_CONTEXT ( 'NONE', 'WORKASPACE' ) );
#200 = FILL_AREA_STYLE ('',( #201 ) ) ;
#201 = FILL_AREA_STYLE_COLOUR ( '', #178 ) ;
#202 = MECHANICAL_DESIGN_GEOMETRIC_PRESENTATION_REPRESENTATION (  '', ( #204 ), #15 ) ;
#203 = PRESENTATION_LAYER_ASSIGNMENT (  '', '', ( #204 ) ) ;
#204 = STYLED_ITEM ( 'NONE', ( #205 ), #213 ) ;
#205 = PRESENTATION_STYLE_ASSIGNMENT (( #206 ) ) ;
#206 = SURFACE_STYLE_USAGE ( .BOTH. , #207 ) ;
#207 = SURFACE_SIDE_STYLE ('',( #208 ) ) ;
#208 = SURFACE_STYLE_FILL_AREA ( #209 ) ;
#209 = FILL_AREA_STYLE ('',( #210 ) ) ;
#210 = FILL_AREA_STYLE_COLOUR ( '', #211 ) ;
#211 = COLOUR_RGB ( '',0.9568627450980391500, 0.9490196078431372100, 0.9607843137254902200 ) ;
#212 = FACE_OUTER_BOUND ( 'NONE', #214, .T. ) ;
#213 = ADVANCED_FACE ( 'NONE', ( #212 ), #14, .T. ) ;
#214 = EDGE_LOOP ( 'NONE', ( #215, #216, #217, #218, #240 ) ) ;
#215 = ORIENTED_EDGE ( 'NONE', *, *, #248, .F. ) ;
#216 = ORIENTED_EDGE ( 'NONE', *, *, #247, .T. ) ;
#217 = ORIENTED_EDGE ( 'NONE', *, *, #256, .T. ) ;
#218 = ORIENTED_EDGE ( 'NONE', *, *, #237, .F. ) ;
#219 = ORIENTED_EDGE ( 'NONE', *, *, #260, .T. ) ;
#220 = ORIENTED_EDGE ( 'NONE', *, *, #231, .T. ) ;
#221 = ORIENTED_EDGE ( 'NONE', *, *, #222, .T. ) ;
#222 = EDGE_CURVE ( 'NONE', #249, #228, #7, .T. ) ;
#223 = ADVANCED_FACE ( 'NONE', ( #49 ), #42, .F. ) ;
#224 = EDGE_LOOP ( 'NONE', ( #245, #246 ) ) ;
#225 = ORIENTED_EDGE ( 'NONE', *, *, #248, .T. ) ;
#226 = ORIENTED_EDGE ( 'NONE', *, *, #227, .T. ) ;
#227 = EDGE_CURVE ( 'NONE', #261, #228, #38, .T. ) ;
#228 = VERTEX_POINT ( 'NONE', #36 ) ;
#229 = ADVANCED_FACE ( 'NONE', ( #35 ), #68, .T. ) ;
#230 = ORIENTED_EDGE ( 'NONE', *, *, #231, .F. ) ;
#231 = EDGE_CURVE ( 'NONE', #232, #249, #63, .T. ) ;
#232 = VERTEX_POINT ( 'NONE', #76 ) ;
#233 = ORIENTED_EDGE ( 'NONE', *, *, #234, .F. ) ;
#234 = EDGE_CURVE ( 'NONE', #235, #232, #84, .T. ) ;
#235 = VERTEX_POINT ( 'NONE', #87 ) ;
#236 = ORIENTED_EDGE ( 'NONE', *, *, #237, .T. ) ;
#237 = EDGE_CURVE ( 'NONE', #228, #235, #72, .T. ) ;
#238 = ORIENTED_EDGE ( 'NONE', *, *, #234, .T. ) ;
#239 = EDGE_LOOP ( 'NONE', ( #244, #219, #220, #221 ) ) ;
#240 = ORIENTED_EDGE ( 'NONE', *, *, #222, .F. ) ;
#241 = CLOSED_SHELL ( 'NONE', ( #229, #257, #243, #223, #213 ) ) ;
#242 = ORIENTED_EDGE ( 'NONE', *, *, #252, .T. ) ;
#243 = ADVANCED_FACE ( 'NONE', ( #81 ), #126, .F. ) ;
#244 = ORIENTED_EDGE ( 'NONE', *, *, #227, .F. ) ;
#245 = ORIENTED_EDGE ( 'NONE', *, *, #252, .F. ) ;
#246 = ORIENTED_EDGE ( 'NONE', *, *, #247, .F. ) ;
#247 = EDGE_CURVE ( 'NONE', #254, #253, #127, .T. ) ;
#248 = EDGE_CURVE ( 'NONE', #254, #249, #107, .T. ) ;
#249 = VERTEX_POINT ( 'NONE', #152 ) ;
#250 = MANIFOLD_SOLID_BREP ( 'NONE', #241 ) ;
#251 = EDGE_LOOP ( 'NONE', ( #242, #225, #230, #233, #255 ) ) ;
#252 = EDGE_CURVE ( 'NONE', #253, #254, #133, .T. ) ;
#253 = VERTEX_POINT ( 'NONE', #112 ) ;
#254 = VERTEX_POINT ( 'NONE', #111 ) ;
#255 = ORIENTED_EDGE ( 'NONE', *, *, #256, .F. ) ;
#256 = EDGE_CURVE ( 'NONE', #253, #235, #124, .T. ) ;
#257 = ADVANCED_FACE ( 'NONE', ( #118 ), #97, .F. ) ;
#258 = EDGE_LOOP ( 'NONE', ( #259, #226, #236, #238 ) ) ;
#259 = ORIENTED_EDGE ( 'NONE', *, *, #260, .F. ) ;
#260 = EDGE_CURVE ( 'NONE', #261, #232, #160, .T. ) ;
#261 = VERTEX_POINT ( 'NONE', #163 ) ;
ENDSEC;
END-ISO-10303-21;
