ISO-10303-21;
HEADER;
FILE_DESCRIPTION (( 'STEP AP203' ),
    '1' );
FILE_NAME ('Web Model 68494.STEP',
    '2017-01-31T20:05:59',
    ( '' ),
    ( '' ),
    'SwSTEP 2.0',
    'SolidWorks 2016',
    '' );
FILE_SCHEMA (( 'CONFIG_CONTROL_DESIGN' ));
ENDSEC;

DATA;
#1 = ORIENTED_EDGE ( 'NONE', *, *, #31, .T. ) ;
#2 = DATE_AND_TIME ( #45, #41 ) ;
#3 = CARTESIAN_POINT ( 'NONE',  ( 0.0000000000000000000, 0.0000000000000000000, 3.000000000000000000 ) ) ;
#4 = DIRECTION ( 'NONE',  ( 0.0000000000000000000, 0.0000000000000000000, 1.000000000000000000 ) ) ;
#5 = COORDINATED_UNIVERSAL_TIME_OFFSET ( 5, 0, .BEHIND. ) ;
#6 = ORIENTED_EDGE ( 'NONE', *, *, #31, .F. ) ;
#7 = FACE_OUTER_BOUND ( 'NONE', #42, .T. ) ;
#8 = VERTEX_POINT ( 'NONE', #116 ) ;
#9 = COORDINATED_UNIVERSAL_TIME_OFFSET ( 5, 0, .BEHIND. ) ;
#10 = APPLICATION_CONTEXT ( 'configuration controlled 3d designs of mechanical parts and assemblies' ) ;
#11 = CARTESIAN_POINT ( 'NONE',  ( 0.0000000000000000000, 0.0000000000000000000, 3.000000000000000000 ) ) ;
#12 = APPROVAL_STATUS ( 'not_yet_approved' ) ;
#13 = PLANE ( 'NONE',  #136 ) ;
#14 = CALENDAR_DATE ( 2017, 31, 1 ) ;
#15 = DIRECTION ( 'NONE',  ( 0.0000000000000000000, 0.0000000000000000000, 1.000000000000000000 ) ) ;
#16 = UNCERTAINTY_MEASURE_WITH_UNIT (LENGTH_MEASURE( 1.000000000000000100E-005 ), #129, 'distance_accuracy_value', 'NONE');
#17 = PERSON_AND_ORGANIZATION ( #37, #123 ) ;
#18 = PERSON_AND_ORGANIZATION ( #37, #123 ) ;
#19 = APPROVAL_DATE_TIME ( #63, #35 ) ;
#20 = ADVANCED_FACE ( 'NONE', ( #39 ), #102, .T. ) ;
#21 = CALENDAR_DATE ( 2017, 31, 1 ) ;
#22 = EDGE_LOOP ( 'NONE', ( #29, #150, #1, #76 ) ) ;
#23 = APPROVAL ( #93, 'UNSPECIFIED' ) ;
#24 = AXIS2_PLACEMENT_3D ( 'NONE', #140, #66, #101 ) ;
#25 = DIRECTION ( 'NONE',  ( 0.0000000000000000000, 0.0000000000000000000, 1.000000000000000000 ) ) ;
#26 = APPROVAL_STATUS ( 'not_yet_approved' ) ;
#27 = CARTESIAN_POINT ( 'NONE',  ( 0.0000000000000000000, 0.0000000000000000000, 3.000000000000000000 ) ) ;
#28 = PERSON_AND_ORGANIZATION ( #37, #123 ) ;
#29 = ORIENTED_EDGE ( 'NONE', *, *, #104, .F. ) ;
#30 = DIRECTION ( 'NONE',  ( 1.000000000000000000, 0.0000000000000000000, -0.0000000000000000000 ) ) ;
#31 = EDGE_CURVE ( 'NONE', #56, #8, #69, .T. ) ;
#32 = EDGE_LOOP ( 'NONE', ( #124, #121 ) ) ;
#33 = DESIGN_CONTEXT ( 'detailed design', #10, 'design' ) ;
#34 = LINE ( 'NONE', #171, #173 ) ;
#35 = APPROVAL ( #26, 'UNSPECIFIED' ) ;
#36 = AXIS2_PLACEMENT_3D ( 'NONE', #11, #25, #82 ) ;
#37 = PERSON ( 'UNSPECIFIED', 'UNSPECIFIED', 'UNSPECIFIED', ('UNSPECIFIED'), ('UNSPECIFIED'), ('UNSPECIFIED') ) ;
#38 = CIRCLE ( 'NONE', #168, 15.00000000000000000 ) ;
#39 = FACE_OUTER_BOUND ( 'NONE', #32, .T. ) ;
#40 = SECURITY_CLASSIFICATION_LEVEL ( 'unclassified' ) ;
#41 = LOCAL_TIME ( 15, 5, 59.00000000000000000, #78 ) ;
#42 = EDGE_LOOP ( 'NONE', ( #143, #6 ) ) ;
#43 = CARTESIAN_POINT ( 'NONE',  ( -15.00000000000000000, 0.0000000000000000000, 3.000000000000000000 ) ) ;
#44 =( NAMED_UNIT ( * ) PLANE_ANGLE_UNIT ( ) SI_UNIT ( $, .RADIAN. ) );
#45 = CALENDAR_DATE ( 2017, 31, 1 ) ;
#46 = EDGE_LOOP ( 'NONE', ( #170, #145, #105, #156 ) ) ;
#47 = CC_DESIGN_SECURITY_CLASSIFICATION ( #146, ( #77 ) ) ;
#48 = VERTEX_POINT ( 'NONE', #50 ) ;
#49 = CARTESIAN_POINT ( 'NONE',  ( 0.0000000000000000000, 0.0000000000000000000, 0.0000000000000000000 ) ) ;
#50 = CARTESIAN_POINT ( 'NONE',  ( 15.00000000000000000, 1.836970198721029600E-015, 3.000000000000000000 ) ) ;
#51 = EDGE_CURVE ( 'NONE', #48, #56, #34, .T. ) ;
#52 = LINE ( 'NONE', #43, #134 ) ;
#53 = AXIS2_PLACEMENT_3D ( 'NONE', #92, #59, #80 ) ;
#54 = ADVANCED_FACE ( 'NONE', ( #106 ), #166, .T. ) ;
#55 = DATE_AND_TIME ( #21, #149 ) ;
#56 = VERTEX_POINT ( 'NONE', #155 ) ;
#57 = MANIFOLD_SOLID_BREP ( 'Extrude1', #139 ) ;
#58 = PRODUCT_RELATED_PRODUCT_CATEGORY ( 'detail', '', ( #159 ) ) ;
#59 = DIRECTION ( 'NONE',  ( 0.0000000000000000000, 0.0000000000000000000, 1.000000000000000000 ) ) ;
#60 = APPROVAL_ROLE ( '' ) ;
#61 = PERSON_AND_ORGANIZATION_ROLE ( 'design_owner' ) ;
#62 = DIRECTION ( 'NONE',  ( -0.0000000000000000000, -0.0000000000000000000, -1.000000000000000000 ) ) ;
#63 = DATE_AND_TIME ( #91, #144 ) ;
#64 = DIRECTION ( 'NONE',  ( 1.000000000000000000, 0.0000000000000000000, -0.0000000000000000000 ) ) ;
#65 = CIRCLE ( 'NONE', #147, 15.00000000000000000 ) ;
#66 = DIRECTION ( 'NONE',  ( -0.0000000000000000000, -0.0000000000000000000, -1.000000000000000000 ) ) ;
#67 = COORDINATED_UNIVERSAL_TIME_OFFSET ( 5, 0, .BEHIND. ) ;
#68 = PRODUCT_DEFINITION ( 'UNKNOWN', '', #77, #33 ) ;
#69 = CIRCLE ( 'NONE', #97, 15.00000000000000000 ) ;
#70 =( NAMED_UNIT ( * ) SI_UNIT ( $, .STERADIAN. ) SOLID_ANGLE_UNIT ( ) );
#71 = DIRECTION ( 'NONE',  ( -0.0000000000000000000, -0.0000000000000000000, -1.000000000000000000 ) ) ;
#72 = CARTESIAN_POINT ( 'NONE',  ( 0.0000000000000000000, 0.0000000000000000000, 3.000000000000000000 ) ) ;
#73 = APPROVAL_ROLE ( '' ) ;
#74 = DIRECTION ( 'NONE',  ( -1.000000000000000000, 0.0000000000000000000, 0.0000000000000000000 ) ) ;
#75 = PERSON_AND_ORGANIZATION ( #37, #123 ) ;
#76 = ORIENTED_EDGE ( 'NONE', *, *, #126, .F. ) ;
#77 = PRODUCT_DEFINITION_FORMATION_WITH_SPECIFIED_SOURCE ( 'ANY', '', #159, .NOT_KNOWN. ) ;
#78 = COORDINATED_UNIVERSAL_TIME_OFFSET ( 5, 0, .BEHIND. ) ;
#79 = PERSON_AND_ORGANIZATION ( #37, #123 ) ;
#80 = DIRECTION ( 'NONE',  ( 1.000000000000000000, 0.0000000000000000000, 0.0000000000000000000 ) ) ;
#81 = DATE_TIME_ROLE ( 'creation_date' ) ;
#82 = DIRECTION ( 'NONE',  ( 1.000000000000000000, 0.0000000000000000000, 0.0000000000000000000 ) ) ;
#83 = APPROVAL_ROLE ( '' ) ;
#84 = COORDINATED_UNIVERSAL_TIME_OFFSET ( 5, 0, .BEHIND. ) ;
#85 = APPROVAL ( #12, 'UNSPECIFIED' ) ;
#86 = APPROVAL_DATE_TIME ( #55, #85 ) ;
#87 = CC_DESIGN_PERSON_AND_ORGANIZATION_ASSIGNMENT ( #79, #61, ( #159 ) ) ;
#88 = APPROVAL_PERSON_ORGANIZATION ( #89, #23, #60 ) ;
#89 = PERSON_AND_ORGANIZATION ( #37, #123 ) ;
#90 = EDGE_CURVE ( 'NONE', #8, #56, #65, .T. ) ;
#91 = CALENDAR_DATE ( 2017, 31, 1 ) ;
#92 = CARTESIAN_POINT ( 'NONE',  ( 0.0000000000000000000, 0.0000000000000000000, 0.0000000000000000000 ) ) ;
#93 = APPROVAL_STATUS ( 'not_yet_approved' ) ;
#94 = DATE_AND_TIME ( #161, #169 ) ;
#95 = CARTESIAN_POINT ( 'NONE',  ( 0.0000000000000000000, 0.0000000000000000000, 0.0000000000000000000 ) ) ;
#96 = PERSON_AND_ORGANIZATION_ROLE ( 'creator' ) ;
#97 = AXIS2_PLACEMENT_3D ( 'NONE', #49, #4, #117 ) ;
#98 = ADVANCED_BREP_SHAPE_REPRESENTATION ( 'Web Model 68494', ( #57, #53 ), #163 ) ;
#99 = APPROVAL_PERSON_ORGANIZATION ( #18, #85, #83 ) ;
#100 = DIRECTION ( 'NONE',  ( 0.0000000000000000000, 0.0000000000000000000, 1.000000000000000000 ) ) ;
#101 = DIRECTION ( 'NONE',  ( -1.000000000000000000, 0.0000000000000000000, 0.0000000000000000000 ) ) ;
#102 = PLANE ( 'NONE',  #158 ) ;
#103 = CC_DESIGN_APPROVAL ( #85, ( #77 ) ) ;
#104 = EDGE_CURVE ( 'NONE', #48, #154, #38, .T. ) ;
#105 = ORIENTED_EDGE ( 'NONE', *, *, #126, .T. ) ;
#106 = FACE_OUTER_BOUND ( 'NONE', #22, .T. ) ;
#107 = PERSON_AND_ORGANIZATION_ROLE ( 'design_supplier' ) ;
#108 = MECHANICAL_CONTEXT ( 'NONE', #165, 'mechanical' ) ;
#109 = PERSON_AND_ORGANIZATION ( #37, #123 ) ;
#110 = CARTESIAN_POINT ( 'NONE',  ( 0.0000000000000000000, 0.0000000000000000000, 0.0000000000000000000 ) ) ;
#111 = DIRECTION ( 'NONE',  ( 0.0000000000000000000, 0.0000000000000000000, 1.000000000000000000 ) ) ;
#112 = DIRECTION ( 'NONE',  ( 1.000000000000000000, 0.0000000000000000000, 0.0000000000000000000 ) ) ;
#113 = APPROVAL_DATE_TIME ( #2, #23 ) ;
#114 = CC_DESIGN_PERSON_AND_ORGANIZATION_ASSIGNMENT ( #17, #127, ( #68 ) ) ;
#115 = EDGE_CURVE ( 'NONE', #154, #48, #142, .T. ) ;
#116 = CARTESIAN_POINT ( 'NONE',  ( -15.00000000000000000, 0.0000000000000000000, 0.0000000000000000000 ) ) ;
#117 = DIRECTION ( 'NONE',  ( 1.000000000000000000, 0.0000000000000000000, 0.0000000000000000000 ) ) ;
#118 = CYLINDRICAL_SURFACE ( 'NONE', #152, 15.00000000000000000 ) ;
#119 = ADVANCED_FACE ( 'NONE', ( #7 ), #13, .F. ) ;
#120 = APPROVAL_PERSON_ORGANIZATION ( #128, #35, #73 ) ;
#121 = ORIENTED_EDGE ( 'NONE', *, *, #104, .T. ) ;
#122 = CC_DESIGN_PERSON_AND_ORGANIZATION_ASSIGNMENT ( #109, #96, ( #77 ) ) ;
#123 = ORGANIZATION ( 'UNSPECIFIED', 'UNSPECIFIED', '' ) ;
#124 = ORIENTED_EDGE ( 'NONE', *, *, #115, .T. ) ;
#125 = DATE_TIME_ROLE ( 'classification_date' ) ;
#126 = EDGE_CURVE ( 'NONE', #154, #8, #52, .T. ) ;
#127 = PERSON_AND_ORGANIZATION_ROLE ( 'creator' ) ;
#128 = PERSON_AND_ORGANIZATION ( #37, #123 ) ;
#129 =( LENGTH_UNIT ( ) NAMED_UNIT ( * ) SI_UNIT ( .MILLI., .METRE. ) );
#130 = CC_DESIGN_APPROVAL ( #35, ( #146 ) ) ;
#131 = DIRECTION ( 'NONE',  ( -0.0000000000000000000, -0.0000000000000000000, -1.000000000000000000 ) ) ;
#132 = LOCAL_TIME ( 15, 5, 59.00000000000000000, #84 ) ;
#133 = CC_DESIGN_PERSON_AND_ORGANIZATION_ASSIGNMENT ( #28, #107, ( #77 ) ) ;
#134 = VECTOR ( 'NONE', #62, 1000.000000000000000 ) ;
#135 = PRODUCT_DEFINITION_SHAPE ( 'NONE', 'NONE',  #68 ) ;
#136 = AXIS2_PLACEMENT_3D ( 'NONE', #110, #111, #30 ) ;
#137 = DIRECTION ( 'NONE',  ( 1.000000000000000000, 0.0000000000000000000, 0.0000000000000000000 ) ) ;
#138 = APPLICATION_PROTOCOL_DEFINITION ( 'international standard', 'config_control_design', 1994, #10 ) ;
#139 = CLOSED_SHELL ( 'NONE', ( #54, #141, #20, #119 ) ) ;
#140 = CARTESIAN_POINT ( 'NONE',  ( 0.0000000000000000000, 0.0000000000000000000, 3.000000000000000000 ) ) ;
#141 = ADVANCED_FACE ( 'NONE', ( #153 ), #118, .T. ) ;
#142 = CIRCLE ( 'NONE', #36, 15.00000000000000000 ) ;
#143 = ORIENTED_EDGE ( 'NONE', *, *, #90, .F. ) ;
#144 = LOCAL_TIME ( 15, 5, 59.00000000000000000, #9 ) ;
#145 = ORIENTED_EDGE ( 'NONE', *, *, #115, .F. ) ;
#146 = SECURITY_CLASSIFICATION ( '', '', #40 ) ;
#147 = AXIS2_PLACEMENT_3D ( 'NONE', #95, #15, #137 ) ;
#148 = DIRECTION ( 'NONE',  ( 0.0000000000000000000, 0.0000000000000000000, 1.000000000000000000 ) ) ;
#149 = LOCAL_TIME ( 15, 5, 59.00000000000000000, #67 ) ;
#150 = ORIENTED_EDGE ( 'NONE', *, *, #51, .T. ) ;
#151 = CC_DESIGN_DATE_AND_TIME_ASSIGNMENT ( #160, #81, ( #68 ) ) ;
#152 = AXIS2_PLACEMENT_3D ( 'NONE', #27, #71, #74 ) ;
#153 = FACE_OUTER_BOUND ( 'NONE', #46, .T. ) ;
#154 = VERTEX_POINT ( 'NONE', #164 ) ;
#155 = CARTESIAN_POINT ( 'NONE',  ( 15.00000000000000000, 1.836970198721029600E-015, 0.0000000000000000000 ) ) ;
#156 = ORIENTED_EDGE ( 'NONE', *, *, #90, .T. ) ;
#157 = CC_DESIGN_APPROVAL ( #23, ( #68 ) ) ;
#158 = AXIS2_PLACEMENT_3D ( 'NONE', #3, #100, #64 ) ;
#159 = PRODUCT ( 'Web Model 68494', 'Web Model 68494', '', ( #108 ) ) ;
#160 = DATE_AND_TIME ( #14, #132 ) ;
#161 = CALENDAR_DATE ( 2017, 31, 1 ) ;
#162 = SHAPE_DEFINITION_REPRESENTATION ( #135, #98 ) ;
#163 =( GEOMETRIC_REPRESENTATION_CONTEXT ( 3 ) GLOBAL_UNCERTAINTY_ASSIGNED_CONTEXT ( ( #16 ) ) GLOBAL_UNIT_ASSIGNED_CONTEXT ( ( #129, #44, #70 ) ) REPRESENTATION_CONTEXT ( 'NONE', 'WORKASPACE' ) );
#164 = CARTESIAN_POINT ( 'NONE',  ( -15.00000000000000000, 0.0000000000000000000, 3.000000000000000000 ) ) ;
#165 = APPLICATION_CONTEXT ( 'configuration controlled 3d designs of mechanical parts and assemblies' ) ;
#166 = CYLINDRICAL_SURFACE ( 'NONE', #24, 15.00000000000000000 ) ;
#167 = CC_DESIGN_PERSON_AND_ORGANIZATION_ASSIGNMENT ( #75, #174, ( #146 ) ) ;
#168 = AXIS2_PLACEMENT_3D ( 'NONE', #72, #148, #112 ) ;
#169 = LOCAL_TIME ( 15, 5, 59.00000000000000000, #5 ) ;
#170 = ORIENTED_EDGE ( 'NONE', *, *, #51, .F. ) ;
#171 = CARTESIAN_POINT ( 'NONE',  ( 15.00000000000000000, 1.836970198721029600E-015, 3.000000000000000000 ) ) ;
#172 = CC_DESIGN_DATE_AND_TIME_ASSIGNMENT ( #94, #125, ( #146 ) ) ;
#173 = VECTOR ( 'NONE', #131, 1000.000000000000000 ) ;
#174 = PERSON_AND_ORGANIZATION_ROLE ( 'classification_officer' ) ;
#175 = APPLICATION_PROTOCOL_DEFINITION ( 'international standard', 'config_control_design', 1994, #165 ) ;
ENDSEC;
END-ISO-10303-21;
