ISO-10303-21;
HEADER;
FILE_DESCRIPTION (( 'STEP AP203' ),
    '1' );
FILE_NAME ('Web Model 18947_18951.step',
    '2021-07-12T18:31:46',
    ( '' ),
    ( '' ),
    'SwSTEP 2.0',
    'SolidWorks 2018',
    '' );
FILE_SCHEMA (( 'CONFIG_CONTROL_DESIGN' ));
ENDSEC;

DATA;
#1 = EDGE_CURVE ( 'NONE', #100, #76, #150, .T. ) ;
#2 = DIRECTION ( 'NONE',  ( -0.000000000000000000, -0.000000000000000000, -1.000000000000000000 ) ) ;
#3 = CARTESIAN_POINT ( 'NONE',  ( -37.50000000000000711, 0.000000000000000000, 0.000000000000000000 ) ) ;
#4 = PERSON_AND_ORGANIZATION ( #69, #63 ) ;
#5 = EDGE_CURVE ( 'NONE', #59, #163, #42, .T. ) ;
#6 = ADVANCED_FACE ( 'NONE', ( #99 ), #62, .F. ) ;
#7 = APPLICATION_PROTOCOL_DEFINITION ( 'international standard', 'config_control_design', 1994, #168 ) ;
#8 = EDGE_LOOP ( 'NONE', ( #51, #165 ) ) ;
#9 = DIRECTION ( 'NONE',  ( 0.000000000000000000, 0.000000000000000000, 1.000000000000000000 ) ) ;
#10 =( GEOMETRIC_REPRESENTATION_CONTEXT ( 3 ) GLOBAL_UNCERTAINTY_ASSIGNED_CONTEXT ( ( #147 ) ) GLOBAL_UNIT_ASSIGNED_CONTEXT ( ( #143, #78, #158 ) ) REPRESENTATION_CONTEXT ( 'NONE', 'WORKASPACE' ) );
#11 = AXIS2_PLACEMENT_3D ( 'NONE', #65, #125, #80 ) ;
#12 = DATE_TIME_ROLE ( 'creation_date' ) ;
#13 = APPLICATION_CONTEXT ( 'configuration controlled 3d designs of mechanical parts and assemblies' ) ;
#14 = CC_DESIGN_PERSON_AND_ORGANIZATION_ASSIGNMENT ( #4, #83, ( #105 ) ) ;
#15 = COORDINATED_UNIVERSAL_TIME_OFFSET ( 5, 0, .BEHIND. ) ;
#16 = PRODUCT_DEFINITION ( 'UNKNOWN', '', #70, #157 ) ;
#17 = CYLINDRICAL_SURFACE ( 'NONE', #53, 37.50000000000000711 ) ;
#18 = CARTESIAN_POINT ( 'NONE',  ( 0.000000000000000000, 0.000000000000000000, 0.000000000000000000 ) ) ;
#19 = ORIENTED_EDGE ( 'NONE', *, *, #115, .F. ) ;
#20 = AXIS2_PLACEMENT_3D ( 'NONE', #153, #2, #77 ) ;
#21 = ADVANCED_BREP_SHAPE_REPRESENTATION ( 'Web Model 18947_18951', ( #131, #11 ), #10 ) ;
#22 = DIRECTION ( 'NONE',  ( -1.000000000000000000, 0.000000000000000000, 0.000000000000000000 ) ) ;
#23 = PERSON_AND_ORGANIZATION ( #69, #63 ) ;
#24 = DATE_TIME_ROLE ( 'classification_date' ) ;
#25 = SHAPE_DEFINITION_REPRESENTATION ( #40, #21 ) ;
#26 = APPROVAL_DATE_TIME ( #38, #27 ) ;
#27 = APPROVAL ( #95, 'UNSPECIFIED' ) ;
#28 = CALENDAR_DATE ( 2021, 12, 7 ) ;
#29 = CIRCLE ( 'NONE', #37, 37.50000000000000711 ) ;
#30 = COORDINATED_UNIVERSAL_TIME_OFFSET ( 5, 0, .BEHIND. ) ;
#31 = COORDINATED_UNIVERSAL_TIME_OFFSET ( 5, 0, .BEHIND. ) ;
#32 = CIRCLE ( 'NONE', #41, 37.50000000000000711 ) ;
#33 = EDGE_LOOP ( 'NONE', ( #149, #170 ) ) ;
#34 = MECHANICAL_CONTEXT ( 'NONE', #168, 'mechanical' ) ;
#35 = ORIENTED_EDGE ( 'NONE', *, *, #115, .T. ) ;
#36 = APPROVAL_STATUS ( 'not_yet_approved' ) ;
#37 = AXIS2_PLACEMENT_3D ( 'NONE', #145, #144, #114 ) ;
#38 = DATE_AND_TIME ( #135, #169 ) ;
#39 = LINE ( 'NONE', #116, #55 ) ;
#40 = PRODUCT_DEFINITION_SHAPE ( 'NONE', 'NONE',  #16 ) ;
#41 = AXIS2_PLACEMENT_3D ( 'NONE', #18, #9, #109 ) ;
#42 = CIRCLE ( 'NONE', #164, 37.50000000000000711 ) ;
#43 = ORIENTED_EDGE ( 'NONE', *, *, #126, .F. ) ;
#44 = CC_DESIGN_APPROVAL ( #27, ( #16 ) ) ;
#45 = DIRECTION ( 'NONE',  ( 0.000000000000000000, 0.000000000000000000, 1.000000000000000000 ) ) ;
#46 = ORIENTED_EDGE ( 'NONE', *, *, #133, .T. ) ;
#47 = CC_DESIGN_DATE_AND_TIME_ASSIGNMENT ( #122, #12, ( #16 ) ) ;
#48 = ADVANCED_FACE ( 'NONE', ( #166 ), #124, .T. ) ;
#49 = CARTESIAN_POINT ( 'NONE',  ( -37.50000000000000711, 0.000000000000000000, 2.000000000000000000 ) ) ;
#50 = FACE_OUTER_BOUND ( 'NONE', #85, .T. ) ;
#51 = ORIENTED_EDGE ( 'NONE', *, *, #126, .T. ) ;
#52 = CC_DESIGN_SECURITY_CLASSIFICATION ( #105, ( #70 ) ) ;
#53 = AXIS2_PLACEMENT_3D ( 'NONE', #88, #106, #22 ) ;
#54 = APPROVAL ( #36, 'UNSPECIFIED' ) ;
#55 = VECTOR ( 'NONE', #128, 1000.000000000000000 ) ;
#56 = CC_DESIGN_PERSON_AND_ORGANIZATION_ASSIGNMENT ( #140, #175, ( #16 ) ) ;
#57 = CALENDAR_DATE ( 2021, 12, 7 ) ;
#58 = COORDINATED_UNIVERSAL_TIME_OFFSET ( 5, 0, .BEHIND. ) ;
#59 = VERTEX_POINT ( 'NONE', #101 ) ;
#60 = DIRECTION ( 'NONE',  ( 0.000000000000000000, 0.000000000000000000, 1.000000000000000000 ) ) ;
#61 = CARTESIAN_POINT ( 'NONE',  ( 0.000000000000000000, 0.000000000000000000, 0.000000000000000000 ) ) ;
#62 = PLANE ( 'NONE',  #111 ) ;
#63 = ORGANIZATION ( 'UNSPECIFIED', 'UNSPECIFIED', '' ) ;
#64 = LINE ( 'NONE', #49, #68 ) ;
#65 = CARTESIAN_POINT ( 'NONE',  ( 0.000000000000000000, 0.000000000000000000, 0.000000000000000000 ) ) ;
#66 = ADVANCED_FACE ( 'NONE', ( #123 ), #174, .T. ) ;
#67 = APPROVAL_ROLE ( '' ) ;
#68 = VECTOR ( 'NONE', #142, 1000.000000000000000 ) ;
#69 = PERSON ( 'UNSPECIFIED', 'UNSPECIFIED', 'UNSPECIFIED', ('UNSPECIFIED'), ('UNSPECIFIED'), ('UNSPECIFIED') ) ;
#70 = PRODUCT_DEFINITION_FORMATION_WITH_SPECIFIED_SOURCE ( 'ANY', '', #136, .NOT_KNOWN. ) ;
#71 = PERSON_AND_ORGANIZATION ( #69, #63 ) ;
#72 = DIRECTION ( 'NONE',  ( 1.000000000000000000, 0.000000000000000000, 0.000000000000000000 ) ) ;
#73 = CLOSED_SHELL ( 'NONE', ( #66, #117, #48, #6 ) ) ;
#74 = CARTESIAN_POINT ( 'NONE',  ( 37.50000000000000711, 4.592425496802575156E-15, 0.000000000000000000 ) ) ;
#75 = APPROVAL_PERSON_ORGANIZATION ( #108, #27, #93 ) ;
#76 = VERTEX_POINT ( 'NONE', #74 ) ;
#77 = DIRECTION ( 'NONE',  ( -1.000000000000000000, 0.000000000000000000, 0.000000000000000000 ) ) ;
#78 =( NAMED_UNIT ( * ) PLANE_ANGLE_UNIT ( ) SI_UNIT ( $, .RADIAN. ) );
#79 = CC_DESIGN_APPROVAL ( #146, ( #70 ) ) ;
#80 = DIRECTION ( 'NONE',  ( 1.000000000000000000, 0.000000000000000000, 0.000000000000000000 ) ) ;
#81 = LOCAL_TIME ( 14, 31, 46.00000000000000000, #58 ) ;
#82 = ORIENTED_EDGE ( 'NONE', *, *, #1, .T. ) ;
#83 = PERSON_AND_ORGANIZATION_ROLE ( 'classification_officer' ) ;
#84 = APPROVAL_ROLE ( '' ) ;
#85 = EDGE_LOOP ( 'NONE', ( #19, #43, #46, #82 ) ) ;
#86 = CC_DESIGN_PERSON_AND_ORGANIZATION_ASSIGNMENT ( #23, #171, ( #70 ) ) ;
#87 = CARTESIAN_POINT ( 'NONE',  ( 0.000000000000000000, 0.000000000000000000, 0.000000000000000000 ) ) ;
#88 = CARTESIAN_POINT ( 'NONE',  ( 0.000000000000000000, 0.000000000000000000, 2.000000000000000000 ) ) ;
#89 = DIRECTION ( 'NONE',  ( 0.000000000000000000, 0.000000000000000000, 1.000000000000000000 ) ) ;
#90 = EDGE_CURVE ( 'NONE', #76, #100, #32, .T. ) ;
#91 = CC_DESIGN_DATE_AND_TIME_ASSIGNMENT ( #103, #24, ( #105 ) ) ;
#92 = PERSON_AND_ORGANIZATION ( #69, #63 ) ;
#93 = APPROVAL_ROLE ( '' ) ;
#94 = LOCAL_TIME ( 14, 31, 46.00000000000000000, #15 ) ;
#95 = APPROVAL_STATUS ( 'not_yet_approved' ) ;
#96 = CC_DESIGN_PERSON_AND_ORGANIZATION_ASSIGNMENT ( #92, #172, ( #70 ) ) ;
#97 = CALENDAR_DATE ( 2021, 12, 7 ) ;
#98 = ORIENTED_EDGE ( 'NONE', *, *, #90, .T. ) ;
#99 = FACE_OUTER_BOUND ( 'NONE', #33, .T. ) ;
#100 = VERTEX_POINT ( 'NONE', #3 ) ;
#101 = CARTESIAN_POINT ( 'NONE',  ( 37.50000000000000711, 4.592425496802575156E-15, 2.000000000000000000 ) ) ;
#102 = DIRECTION ( 'NONE',  ( 1.000000000000000000, 0.000000000000000000, 0.000000000000000000 ) ) ;
#103 = DATE_AND_TIME ( #28, #94 ) ;
#104 = CARTESIAN_POINT ( 'NONE',  ( 0.000000000000000000, 0.000000000000000000, 2.000000000000000000 ) ) ;
#105 = SECURITY_CLASSIFICATION ( '', '', #160 ) ;
#106 = DIRECTION ( 'NONE',  ( -0.000000000000000000, -0.000000000000000000, -1.000000000000000000 ) ) ;
#107 = DATE_AND_TIME ( #138, #81 ) ;
#108 = PERSON_AND_ORGANIZATION ( #69, #63 ) ;
#109 = DIRECTION ( 'NONE',  ( 1.000000000000000000, 0.000000000000000000, 0.000000000000000000 ) ) ;
#110 = LOCAL_TIME ( 14, 31, 46.00000000000000000, #129 ) ;
#111 = AXIS2_PLACEMENT_3D ( 'NONE', #61, #45, #155 ) ;
#112 = PERSON_AND_ORGANIZATION ( #69, #63 ) ;
#113 = DIRECTION ( 'NONE',  ( 1.000000000000000000, 0.000000000000000000, -0.000000000000000000 ) ) ;
#114 = DIRECTION ( 'NONE',  ( 1.000000000000000000, 0.000000000000000000, 0.000000000000000000 ) ) ;
#115 = EDGE_CURVE ( 'NONE', #59, #76, #39, .T. ) ;
#116 = CARTESIAN_POINT ( 'NONE',  ( 37.50000000000000711, 4.592425496802575156E-15, 2.000000000000000000 ) ) ;
#117 = ADVANCED_FACE ( 'NONE', ( #50 ), #17, .T. ) ;
#118 = ORIENTED_EDGE ( 'NONE', *, *, #133, .F. ) ;
#119 = APPROVAL_PERSON_ORGANIZATION ( #162, #146, #67 ) ;
#120 = APPROVAL_DATE_TIME ( #132, #54 ) ;
#121 = DIRECTION ( 'NONE',  ( 0.000000000000000000, 0.000000000000000000, 1.000000000000000000 ) ) ;
#122 = DATE_AND_TIME ( #97, #110 ) ;
#123 = FACE_OUTER_BOUND ( 'NONE', #151, .T. ) ;
#124 = PLANE ( 'NONE',  #137 ) ;
#125 = DIRECTION ( 'NONE',  ( 0.000000000000000000, 0.000000000000000000, 1.000000000000000000 ) ) ;
#126 = EDGE_CURVE ( 'NONE', #163, #59, #29, .T. ) ;
#127 = APPROVAL_DATE_TIME ( #107, #146 ) ;
#128 = DIRECTION ( 'NONE',  ( -0.000000000000000000, -0.000000000000000000, -1.000000000000000000 ) ) ;
#129 = COORDINATED_UNIVERSAL_TIME_OFFSET ( 5, 0, .BEHIND. ) ;
#130 = APPROVAL_STATUS ( 'not_yet_approved' ) ;
#131 = MANIFOLD_SOLID_BREP ( 'Boss-Extrude1', #73 ) ;
#132 = DATE_AND_TIME ( #57, #173 ) ;
#133 = EDGE_CURVE ( 'NONE', #163, #100, #64, .T. ) ;
#134 = PERSON_AND_ORGANIZATION_ROLE ( 'design_owner' ) ;
#135 = CALENDAR_DATE ( 2021, 12, 7 ) ;
#136 = PRODUCT ( 'Web Model 18947_18951', 'Web Model 18947_18951', '', ( #34 ) ) ;
#137 = AXIS2_PLACEMENT_3D ( 'NONE', #104, #60, #113 ) ;
#138 = CALENDAR_DATE ( 2021, 12, 7 ) ;
#139 = CARTESIAN_POINT ( 'NONE',  ( 0.000000000000000000, 0.000000000000000000, 2.000000000000000000 ) ) ;
#140 = PERSON_AND_ORGANIZATION ( #69, #63 ) ;
#141 = ORIENTED_EDGE ( 'NONE', *, *, #5, .F. ) ;
#142 = DIRECTION ( 'NONE',  ( -0.000000000000000000, -0.000000000000000000, -1.000000000000000000 ) ) ;
#143 =( LENGTH_UNIT ( ) NAMED_UNIT ( * ) SI_UNIT ( .MILLI., .METRE. ) );
#144 = DIRECTION ( 'NONE',  ( 0.000000000000000000, 0.000000000000000000, 1.000000000000000000 ) ) ;
#145 = CARTESIAN_POINT ( 'NONE',  ( 0.000000000000000000, 0.000000000000000000, 2.000000000000000000 ) ) ;
#146 = APPROVAL ( #130, 'UNSPECIFIED' ) ;
#147 = UNCERTAINTY_MEASURE_WITH_UNIT (LENGTH_MEASURE( 1.000000000000000082E-05 ), #143, 'distance_accuracy_value', 'NONE');
#148 = CC_DESIGN_PERSON_AND_ORGANIZATION_ASSIGNMENT ( #112, #134, ( #136 ) ) ;
#149 = ORIENTED_EDGE ( 'NONE', *, *, #1, .F. ) ;
#150 = CIRCLE ( 'NONE', #154, 37.50000000000000711 ) ;
#151 = EDGE_LOOP ( 'NONE', ( #141, #35, #98, #118 ) ) ;
#152 = CC_DESIGN_APPROVAL ( #54, ( #105 ) ) ;
#153 = CARTESIAN_POINT ( 'NONE',  ( 0.000000000000000000, 0.000000000000000000, 2.000000000000000000 ) ) ;
#154 = AXIS2_PLACEMENT_3D ( 'NONE', #87, #89, #102 ) ;
#155 = DIRECTION ( 'NONE',  ( 1.000000000000000000, 0.000000000000000000, -0.000000000000000000 ) ) ;
#156 = PRODUCT_RELATED_PRODUCT_CATEGORY ( 'detail', '', ( #136 ) ) ;
#157 = DESIGN_CONTEXT ( 'detailed design', #13, 'design' ) ;
#158 =( NAMED_UNIT ( * ) SI_UNIT ( $, .STERADIAN. ) SOLID_ANGLE_UNIT ( ) );
#159 = CARTESIAN_POINT ( 'NONE',  ( -37.50000000000000711, 0.000000000000000000, 2.000000000000000000 ) ) ;
#160 = SECURITY_CLASSIFICATION_LEVEL ( 'unclassified' ) ;
#161 = APPLICATION_PROTOCOL_DEFINITION ( 'international standard', 'config_control_design', 1994, #13 ) ;
#162 = PERSON_AND_ORGANIZATION ( #69, #63 ) ;
#163 = VERTEX_POINT ( 'NONE', #159 ) ;
#164 = AXIS2_PLACEMENT_3D ( 'NONE', #139, #121, #72 ) ;
#165 = ORIENTED_EDGE ( 'NONE', *, *, #5, .T. ) ;
#166 = FACE_OUTER_BOUND ( 'NONE', #8, .T. ) ;
#167 = APPROVAL_PERSON_ORGANIZATION ( #71, #54, #84 ) ;
#168 = APPLICATION_CONTEXT ( 'configuration controlled 3d designs of mechanical parts and assemblies' ) ;
#169 = LOCAL_TIME ( 14, 31, 46.00000000000000000, #30 ) ;
#170 = ORIENTED_EDGE ( 'NONE', *, *, #90, .F. ) ;
#171 = PERSON_AND_ORGANIZATION_ROLE ( 'creator' ) ;
#172 = PERSON_AND_ORGANIZATION_ROLE ( 'design_supplier' ) ;
#173 = LOCAL_TIME ( 14, 31, 46.00000000000000000, #31 ) ;
#174 = CYLINDRICAL_SURFACE ( 'NONE', #20, 37.50000000000000711 ) ;
#175 = PERSON_AND_ORGANIZATION_ROLE ( 'creator' ) ;
ENDSEC;
END-ISO-10303-21;
