ISO-10303-21;
HEADER;
FILE_DESCRIPTION (( 'STEP AP203' ),
    '1' );
FILE_NAME ('Web Model 47681_47681.step',
    '2020-10-07T17:22:28',
    ( '' ),
    ( '' ),
    'SwSTEP 2.0',
    'SolidWorks 2018',
    '' );
FILE_SCHEMA (( 'CONFIG_CONTROL_DESIGN' ));
ENDSEC;

DATA;
#1 = CIRCLE ( 'NONE', #13, 5.000000000000000888 ) ;
#2 = MANIFOLD_SOLID_BREP ( 'Boss-Extrude1', #59 ) ;
#3 = ADVANCED_FACE ( 'NONE', ( #9 ), #168, .T. ) ;
#4 = AXIS2_PLACEMENT_3D ( 'NONE', #88, #128, #40 ) ;
#5 = PRODUCT_RELATED_PRODUCT_CATEGORY ( 'detail', '', ( #69 ) ) ;
#6 = ORIENTED_EDGE ( 'NONE', *, *, #107, .T. ) ;
#7 = PLANE ( 'NONE',  #175 ) ;
#8 = DATE_TIME_ROLE ( 'classification_date' ) ;
#9 = FACE_OUTER_BOUND ( 'NONE', #117, .T. ) ;
#10 = DIRECTION ( 'NONE',  ( 1.000000000000000000, 0.0000000000000000000, 0.0000000000000000000 ) ) ;
#11 = APPROVAL_STATUS ( 'not_yet_approved' ) ;
#12 = DATE_AND_TIME ( #174, #78 ) ;
#13 = AXIS2_PLACEMENT_3D ( 'NONE', #15, #20, #82 ) ;
#14 = LOCAL_TIME ( 13, 22, 28.00000000000000000, #77 ) ;
#15 = CARTESIAN_POINT ( 'NONE',  ( 0.0000000000000000000, 0.0000000000000000000, 0.7500000000000000000 ) ) ;
#16 = FACE_OUTER_BOUND ( 'NONE', #162, .T. ) ;
#17 = SHAPE_DEFINITION_REPRESENTATION ( #70, #99 ) ;
#18 =( GEOMETRIC_REPRESENTATION_CONTEXT ( 3 ) GLOBAL_UNCERTAINTY_ASSIGNED_CONTEXT ( ( #29 ) ) GLOBAL_UNIT_ASSIGNED_CONTEXT ( ( #173, #145, #75 ) ) REPRESENTATION_CONTEXT ( 'NONE', 'WORKASPACE' ) );
#19 = PLANE ( 'NONE',  #120 ) ;
#20 = DIRECTION ( 'NONE',  ( 0.0000000000000000000, 0.0000000000000000000, 1.000000000000000000 ) ) ;
#21 = PERSON_AND_ORGANIZATION ( #136, #164 ) ;
#22 = CARTESIAN_POINT ( 'NONE',  ( 0.0000000000000000000, 0.0000000000000000000, -0.7500000000000000000 ) ) ;
#23 = CARTESIAN_POINT ( 'NONE',  ( -5.000000000000000888, 0.0000000000000000000, -0.7500000000000000000 ) ) ;
#24 = APPLICATION_CONTEXT ( 'configuration controlled 3d designs of mechanical parts and assemblies' ) ;
#25 = CARTESIAN_POINT ( 'NONE',  ( 0.0000000000000000000, 0.0000000000000000000, -0.7500000000000000000 ) ) ;
#26 = PERSON_AND_ORGANIZATION_ROLE ( 'design_supplier' ) ;
#27 = CC_DESIGN_DATE_AND_TIME_ASSIGNMENT ( #28, #8, ( #57 ) ) ;
#28 = DATE_AND_TIME ( #143, #170 ) ;
#29 = UNCERTAINTY_MEASURE_WITH_UNIT (LENGTH_MEASURE( 1.000000000000000082E-05 ), #173, 'distance_accuracy_value', 'NONE');
#30 = CC_DESIGN_SECURITY_CLASSIFICATION ( #57, ( #71 ) ) ;
#31 = ORIENTED_EDGE ( 'NONE', *, *, #141, .F. ) ;
#32 = CALENDAR_DATE ( 2020, 7, 10 ) ;
#33 = EDGE_CURVE ( 'NONE', #119, #169, #1, .T. ) ;
#34 = DIRECTION ( 'NONE',  ( 0.0000000000000000000, 0.0000000000000000000, 1.000000000000000000 ) ) ;
#35 = APPLICATION_PROTOCOL_DEFINITION ( 'international standard', 'config_control_design', 1994, #66 ) ;
#36 = CIRCLE ( 'NONE', #4, 5.000000000000000888 ) ;
#37 = PERSON_AND_ORGANIZATION_ROLE ( 'creator' ) ;
#38 = DIRECTION ( 'NONE',  ( 1.000000000000000000, 0.0000000000000000000, 0.0000000000000000000 ) ) ;
#39 = CC_DESIGN_PERSON_AND_ORGANIZATION_ASSIGNMENT ( #111, #26, ( #71 ) ) ;
#40 = DIRECTION ( 'NONE',  ( 1.000000000000000000, 0.0000000000000000000, 0.0000000000000000000 ) ) ;
#41 = VECTOR ( 'NONE', #105, 1000.000000000000000 ) ;
#42 = APPROVAL_PERSON_ORGANIZATION ( #21, #109, #115 ) ;
#43 = ORIENTED_EDGE ( 'NONE', *, *, #107, .F. ) ;
#44 = VECTOR ( 'NONE', #52, 1000.000000000000000 ) ;
#45 = CC_DESIGN_PERSON_AND_ORGANIZATION_ASSIGNMENT ( #139, #142, ( #69 ) ) ;
#46 = LOCAL_TIME ( 13, 22, 28.00000000000000000, #60 ) ;
#47 = APPROVAL ( #51, 'UNSPECIFIED' ) ;
#48 = DIRECTION ( 'NONE',  ( -1.000000000000000000, 0.0000000000000000000, 0.0000000000000000000 ) ) ;
#49 = DATE_AND_TIME ( #159, #137 ) ;
#50 = MECHANICAL_CONTEXT ( 'NONE', #24, 'mechanical' ) ;
#51 = APPROVAL_STATUS ( 'not_yet_approved' ) ;
#52 = DIRECTION ( 'NONE',  ( -0.0000000000000000000, -0.0000000000000000000, -1.000000000000000000 ) ) ;
#53 = AXIS2_PLACEMENT_3D ( 'NONE', #85, #129, #10 ) ;
#54 = ADVANCED_FACE ( 'NONE', ( #135 ), #19, .T. ) ;
#55 = PRODUCT_DEFINITION ( 'UNKNOWN', '', #71, #80 ) ;
#56 = ORIENTED_EDGE ( 'NONE', *, *, #134, .T. ) ;
#57 = SECURITY_CLASSIFICATION ( '', '', #144 ) ;
#58 = ORIENTED_EDGE ( 'NONE', *, *, #94, .T. ) ;
#59 = CLOSED_SHELL ( 'NONE', ( #148, #3, #54, #93 ) ) ;
#60 = COORDINATED_UNIVERSAL_TIME_OFFSET ( 5, 0, .BEHIND. ) ;
#61 = DIRECTION ( 'NONE',  ( 0.0000000000000000000, 0.0000000000000000000, 1.000000000000000000 ) ) ;
#62 = CC_DESIGN_DATE_AND_TIME_ASSIGNMENT ( #49, #155, ( #55 ) ) ;
#63 = DIRECTION ( 'NONE',  ( -0.0000000000000000000, -0.0000000000000000000, -1.000000000000000000 ) ) ;
#64 = APPROVAL_ROLE ( '' ) ;
#65 = DIRECTION ( 'NONE',  ( 0.0000000000000000000, 0.0000000000000000000, 1.000000000000000000 ) ) ;
#66 = APPLICATION_CONTEXT ( 'configuration controlled 3d designs of mechanical parts and assemblies' ) ;
#67 = EDGE_LOOP ( 'NONE', ( #122, #58 ) ) ;
#68 = APPROVAL_PERSON_ORGANIZATION ( #149, #47, #86 ) ;
#69 = PRODUCT ( 'Web Model 47681_47681', 'Web Model 47681_47681', '', ( #50 ) ) ;
#70 = PRODUCT_DEFINITION_SHAPE ( 'NONE', 'NONE',  #55 ) ;
#71 = PRODUCT_DEFINITION_FORMATION_WITH_SPECIFIED_SOURCE ( 'ANY', '', #69, .NOT_KNOWN. ) ;
#72 = CARTESIAN_POINT ( 'NONE',  ( 0.0000000000000000000, 0.0000000000000000000, 0.7500000000000000000 ) ) ;
#73 = DIRECTION ( 'NONE',  ( 1.000000000000000000, 0.0000000000000000000, -0.0000000000000000000 ) ) ;
#74 = PERSON_AND_ORGANIZATION_ROLE ( 'classification_officer' ) ;
#75 =( NAMED_UNIT ( * ) SI_UNIT ( $, .STERADIAN. ) SOLID_ANGLE_UNIT ( ) );
#76 = CARTESIAN_POINT ( 'NONE',  ( 5.000000000000000888, 6.123233995736767268E-16, -0.7500000000000000000 ) ) ;
#77 = COORDINATED_UNIVERSAL_TIME_OFFSET ( 5, 0, .BEHIND. ) ;
#78 = LOCAL_TIME ( 13, 22, 28.00000000000000000, #123 ) ;
#79 = PERSON_AND_ORGANIZATION ( #136, #164 ) ;
#80 = DESIGN_CONTEXT ( 'detailed design', #66, 'design' ) ;
#81 = DATE_AND_TIME ( #32, #46 ) ;
#82 = DIRECTION ( 'NONE',  ( 1.000000000000000000, 0.0000000000000000000, 0.0000000000000000000 ) ) ;
#83 = DIRECTION ( 'NONE',  ( -0.0000000000000000000, -0.0000000000000000000, -1.000000000000000000 ) ) ;
#84 = PERSON_AND_ORGANIZATION ( #136, #164 ) ;
#85 = CARTESIAN_POINT ( 'NONE',  ( 0.0000000000000000000, 0.0000000000000000000, 0.0000000000000000000 ) ) ;
#86 = APPROVAL_ROLE ( '' ) ;
#87 = CARTESIAN_POINT ( 'NONE',  ( 0.0000000000000000000, 0.0000000000000000000, 0.7500000000000000000 ) ) ;
#88 = CARTESIAN_POINT ( 'NONE',  ( 0.0000000000000000000, 0.0000000000000000000, -0.7500000000000000000 ) ) ;
#89 = APPROVAL_DATE_TIME ( #12, #109 ) ;
#90 = CC_DESIGN_APPROVAL ( #96, ( #57 ) ) ;
#91 = CARTESIAN_POINT ( 'NONE',  ( 5.000000000000000888, 6.123233995736767268E-16, 0.7500000000000000000 ) ) ;
#92 = CALENDAR_DATE ( 2020, 7, 10 ) ;
#93 = ADVANCED_FACE ( 'NONE', ( #16 ), #7, .F. ) ;
#94 = EDGE_CURVE ( 'NONE', #169, #119, #151, .T. ) ;
#95 = ORIENTED_EDGE ( 'NONE', *, *, #141, .T. ) ;
#96 = APPROVAL ( #160, 'UNSPECIFIED' ) ;
#97 = APPROVAL_DATE_TIME ( #118, #96 ) ;
#98 = LINE ( 'NONE', #172, #44 ) ;
#99 = ADVANCED_BREP_SHAPE_REPRESENTATION ( 'Web Model 47681_47681', ( #2, #53 ), #18 ) ;
#100 = CARTESIAN_POINT ( 'NONE',  ( -5.000000000000000888, 0.0000000000000000000, 0.7500000000000000000 ) ) ;
#101 = AXIS2_PLACEMENT_3D ( 'NONE', #140, #63, #125 ) ;
#102 = APPROVAL_DATE_TIME ( #81, #47 ) ;
#103 = DIRECTION ( 'NONE',  ( 1.000000000000000000, 0.0000000000000000000, -0.0000000000000000000 ) ) ;
#104 = ORIENTED_EDGE ( 'NONE', *, *, #147, .F. ) ;
#105 = DIRECTION ( 'NONE',  ( -0.0000000000000000000, -0.0000000000000000000, -1.000000000000000000 ) ) ;
#106 = DIRECTION ( 'NONE',  ( 0.0000000000000000000, 0.0000000000000000000, 1.000000000000000000 ) ) ;
#107 = EDGE_CURVE ( 'NONE', #119, #131, #171, .T. ) ;
#108 = COORDINATED_UNIVERSAL_TIME_OFFSET ( 5, 0, .BEHIND. ) ;
#109 = APPROVAL ( #11, 'UNSPECIFIED' ) ;
#110 = AXIS2_PLACEMENT_3D ( 'NONE', #87, #65, #114 ) ;
#111 = PERSON_AND_ORGANIZATION ( #136, #164 ) ;
#112 = EDGE_LOOP ( 'NONE', ( #138, #56, #150, #43 ) ) ;
#113 = ORIENTED_EDGE ( 'NONE', *, *, #134, .F. ) ;
#114 = DIRECTION ( 'NONE',  ( 1.000000000000000000, 0.0000000000000000000, 0.0000000000000000000 ) ) ;
#115 = APPROVAL_ROLE ( '' ) ;
#116 = CARTESIAN_POINT ( 'NONE',  ( -5.000000000000000888, 0.0000000000000000000, 0.7500000000000000000 ) ) ;
#117 = EDGE_LOOP ( 'NONE', ( #113, #157, #6, #95 ) ) ;
#118 = DATE_AND_TIME ( #92, #14 ) ;
#119 = VERTEX_POINT ( 'NONE', #116 ) ;
#120 = AXIS2_PLACEMENT_3D ( 'NONE', #153, #34, #103 ) ;
#121 = CC_DESIGN_APPROVAL ( #47, ( #71 ) ) ;
#122 = ORIENTED_EDGE ( 'NONE', *, *, #33, .T. ) ;
#123 = COORDINATED_UNIVERSAL_TIME_OFFSET ( 5, 0, .BEHIND. ) ;
#124 = PERSON_AND_ORGANIZATION ( #136, #164 ) ;
#125 = DIRECTION ( 'NONE',  ( -1.000000000000000000, 0.0000000000000000000, 0.0000000000000000000 ) ) ;
#126 = CYLINDRICAL_SURFACE ( 'NONE', #101, 5.000000000000000888 ) ;
#127 = FACE_OUTER_BOUND ( 'NONE', #112, .T. ) ;
#128 = DIRECTION ( 'NONE',  ( 0.0000000000000000000, 0.0000000000000000000, 1.000000000000000000 ) ) ;
#129 = DIRECTION ( 'NONE',  ( 0.0000000000000000000, 0.0000000000000000000, 1.000000000000000000 ) ) ;
#130 = AXIS2_PLACEMENT_3D ( 'NONE', #25, #106, #38 ) ;
#131 = VERTEX_POINT ( 'NONE', #23 ) ;
#132 = APPROVAL_PERSON_ORGANIZATION ( #124, #96, #64 ) ;
#133 = CIRCLE ( 'NONE', #130, 5.000000000000000888 ) ;
#134 = EDGE_CURVE ( 'NONE', #169, #165, #98, .T. ) ;
#135 = FACE_OUTER_BOUND ( 'NONE', #67, .T. ) ;
#136 = PERSON ( 'UNSPECIFIED', 'UNSPECIFIED', 'UNSPECIFIED', ('UNSPECIFIED'), ('UNSPECIFIED'), ('UNSPECIFIED') ) ;
#137 = LOCAL_TIME ( 13, 22, 28.00000000000000000, #108 ) ;
#138 = ORIENTED_EDGE ( 'NONE', *, *, #94, .F. ) ;
#139 = PERSON_AND_ORGANIZATION ( #136, #164 ) ;
#140 = CARTESIAN_POINT ( 'NONE',  ( 0.0000000000000000000, 0.0000000000000000000, 0.7500000000000000000 ) ) ;
#141 = EDGE_CURVE ( 'NONE', #131, #165, #133, .T. ) ;
#142 = PERSON_AND_ORGANIZATION_ROLE ( 'design_owner' ) ;
#143 = CALENDAR_DATE ( 2020, 7, 10 ) ;
#144 = SECURITY_CLASSIFICATION_LEVEL ( 'unclassified' ) ;
#145 =( NAMED_UNIT ( * ) PLANE_ANGLE_UNIT ( ) SI_UNIT ( $, .RADIAN. ) );
#146 = CC_DESIGN_PERSON_AND_ORGANIZATION_ASSIGNMENT ( #79, #156, ( #71 ) ) ;
#147 = EDGE_CURVE ( 'NONE', #165, #131, #36, .T. ) ;
#148 = ADVANCED_FACE ( 'NONE', ( #127 ), #126, .T. ) ;
#149 = PERSON_AND_ORGANIZATION ( #136, #164 ) ;
#150 = ORIENTED_EDGE ( 'NONE', *, *, #147, .T. ) ;
#151 = CIRCLE ( 'NONE', #110, 5.000000000000000888 ) ;
#152 = PERSON_AND_ORGANIZATION ( #136, #164 ) ;
#153 = CARTESIAN_POINT ( 'NONE',  ( 0.0000000000000000000, 0.0000000000000000000, 0.7500000000000000000 ) ) ;
#154 = CC_DESIGN_APPROVAL ( #109, ( #55 ) ) ;
#155 = DATE_TIME_ROLE ( 'creation_date' ) ;
#156 = PERSON_AND_ORGANIZATION_ROLE ( 'creator' ) ;
#157 = ORIENTED_EDGE ( 'NONE', *, *, #33, .F. ) ;
#158 = APPLICATION_PROTOCOL_DEFINITION ( 'international standard', 'config_control_design', 1994, #24 ) ;
#159 = CALENDAR_DATE ( 2020, 7, 10 ) ;
#160 = APPROVAL_STATUS ( 'not_yet_approved' ) ;
#161 = AXIS2_PLACEMENT_3D ( 'NONE', #72, #83, #48 ) ;
#162 = EDGE_LOOP ( 'NONE', ( #31, #104 ) ) ;
#163 = CC_DESIGN_PERSON_AND_ORGANIZATION_ASSIGNMENT ( #152, #74, ( #57 ) ) ;
#164 = ORGANIZATION ( 'UNSPECIFIED', 'UNSPECIFIED', '' ) ;
#165 = VERTEX_POINT ( 'NONE', #76 ) ;
#166 = CC_DESIGN_PERSON_AND_ORGANIZATION_ASSIGNMENT ( #84, #37, ( #55 ) ) ;
#167 = COORDINATED_UNIVERSAL_TIME_OFFSET ( 5, 0, .BEHIND. ) ;
#168 = CYLINDRICAL_SURFACE ( 'NONE', #161, 5.000000000000000888 ) ;
#169 = VERTEX_POINT ( 'NONE', #91 ) ;
#170 = LOCAL_TIME ( 13, 22, 28.00000000000000000, #167 ) ;
#171 = LINE ( 'NONE', #100, #41 ) ;
#172 = CARTESIAN_POINT ( 'NONE',  ( 5.000000000000000888, 6.123233995736767268E-16, 0.7500000000000000000 ) ) ;
#173 =( LENGTH_UNIT ( ) NAMED_UNIT ( * ) SI_UNIT ( .MILLI., .METRE. ) );
#174 = CALENDAR_DATE ( 2020, 7, 10 ) ;
#175 = AXIS2_PLACEMENT_3D ( 'NONE', #22, #61, #73 ) ;
ENDSEC;
END-ISO-10303-21;
