ISO-10303-21;
HEADER;
FILE_DESCRIPTION (( 'STEP AP203' ),
    '1' );
FILE_NAME ('20189-E0W.STEP',
    '2009-09-14T20:49:40',
    ( 'Admin' ),
    ( 'Thorlabs, Inc.' ),
    'SwSTEP 2.0',
    'SolidWorks 2007',
    '' );
FILE_SCHEMA (( 'CONFIG_CONTROL_DESIGN' ));
ENDSEC;

DATA;
#1 = FACE_OUTER_BOUND ( 'NONE', #160, .T. ) ;
#2 = CARTESIAN_POINT ( 'NONE',  ( 0.0000000000000000000, 3.398037710586334000E-014, -278.5000000000001700 ) ) ;
#3 = CARTESIAN_POINT ( 'NONE',  ( 1.555250069354402700E-015, -12.69999999999991600, 1.712348050545316400 ) ) ;
#4 = DIRECTION ( 'NONE',  ( 0.0000000000000000000, 3.061515884555943100E-016, -1.000000000000000000 ) ) ;
#5 = VECTOR ( 'NONE', #4, 1000.000000000000000 ) ;
#6 = CARTESIAN_POINT ( 'NONE',  ( 0.0000000000000000000, 12.69999999999999900, -1.999999999999996200 ) ) ;
#7 = DIRECTION ( 'NONE',  ( 0.0000000000000000000, 0.0000000000000000000, 1.000000000000000000 ) ) ;
#8 = DIRECTION ( 'NONE',  ( -1.000000000000000000, 0.0000000000000000000, 0.0000000000000000000 ) ) ;
#9 = CARTESIAN_POINT ( 'NONE',  ( 0.0000000000000000000, 3.398037710586334000E-014, -278.5000000000001700 ) ) ;
#10 = AXIS2_PLACEMENT_3D ( 'NONE', #9, #8, #7 ) ;
#11 = CIRCLE ( 'NONE', #10, 280.5000000000000600 ) ;
#12 = LINE ( 'NONE', #6, #5 ) ;
#13 = DIRECTION ( 'NONE',  ( 0.0000000000000000000, 1.000000000000000000, 3.073328992872296400E-016 ) ) ;
#14 = DIRECTION ( 'NONE',  ( 0.0000000000000000000, 3.061515884555943100E-016, -1.000000000000000000 ) ) ;
#15 = CARTESIAN_POINT ( 'NONE',  ( 0.0000000000000000000, 8.547752349680193100E-016, -2.000000000000000000 ) ) ;
#16 = AXIS2_PLACEMENT_3D ( 'NONE', #15, #14, #13 ) ;
#17 = DIRECTION ( 'NONE',  ( 0.0000000000000000000, 1.000000000000000000, 3.073328992872295400E-016 ) ) ;
#18 = DIRECTION ( 'NONE',  ( 0.0000000000000000000, 3.061515884555943100E-016, -1.000000000000000000 ) ) ;
#19 = CARTESIAN_POINT ( 'NONE',  ( 0.0000000000000000000, -2.817660176064582300E-016, 1.712348050545316400 ) ) ;
#20 = AXIS2_PLACEMENT_3D ( 'NONE', #19, #18, #17 ) ;
#21 = CIRCLE ( 'NONE', #20, 12.70000000000000300 ) ;
#22 = CARTESIAN_POINT ( 'NONE',  ( 1.555250069354419100E-015, -12.69999999999999900, -2.000000000000008000 ) ) ;
#23 = DIRECTION ( 'NONE',  ( 0.0000000000000000000, 1.000000000000000000, 3.061515884555943100E-016 ) ) ;
#24 = CYLINDRICAL_SURFACE ( 'NONE', #16, 12.69999999999999900 ) ;
#25 = DIRECTION ( 'NONE',  ( 0.0000000000000000000, 3.061515884555943100E-016, -1.000000000000000000 ) ) ;
#26 = CARTESIAN_POINT ( 'NONE',  ( 0.0000000000000000000, 8.547752349680199000E-016, -2.000000000000001800 ) ) ;
#27 = AXIS2_PLACEMENT_3D ( 'NONE', #26, #25, #23 ) ;
#28 = PLANE ( 'NONE',  #27 ) ;
#29 = FACE_OUTER_BOUND ( 'NONE', #144, .T. ) ;
#30 = CARTESIAN_POINT ( 'NONE',  ( 0.0000000000000000000, -3.472003934357204300E-014, 1.999999999999890800 ) ) ;
#31 = DIRECTION ( 'NONE',  ( -1.224606353822377500E-016, 1.000000000000000000, 0.0000000000000000000 ) ) ;
#32 = DIRECTION ( 'NONE',  ( 1.000000000000000000, 1.224606353822377300E-016, 3.749151804555343600E-032 ) ) ;
#33 = AXIS2_PLACEMENT_3D ( 'NONE', #2, #32, #31 ) ;
#34 = CIRCLE ( 'NONE', #33, 280.5000000000000600 ) ;
#35 = ADVANCED_BREP_SHAPE_REPRESENTATION ( '20189-E0W', ( #155, #66 ), #36 ) ;
#36 =( GEOMETRIC_REPRESENTATION_CONTEXT ( 3 ) GLOBAL_UNCERTAINTY_ASSIGNED_CONTEXT ( ( #37 ) ) GLOBAL_UNIT_ASSIGNED_CONTEXT ( ( #58, #57, #56 ) ) REPRESENTATION_CONTEXT ( 'NONE', 'WORKASPACE' ) );
#37 = UNCERTAINTY_MEASURE_WITH_UNIT (LENGTH_MEASURE( 1.000000000000000100E-005 ), #58, 'distance_accuracy_value', 'NONE');
#38 = LINE ( 'NONE', #55, #54 ) ;
#39 = DIRECTION ( 'NONE',  ( 0.0000000000000000000, 1.000000000000000000, 3.073328992872295400E-016 ) ) ;
#40 = DIRECTION ( 'NONE',  ( 0.0000000000000000000, 3.061515884555943100E-016, -1.000000000000000000 ) ) ;
#41 = CARTESIAN_POINT ( 'NONE',  ( 0.0000000000000000000, -2.817660176064582300E-016, 1.712348050545316400 ) ) ;
#42 = AXIS2_PLACEMENT_3D ( 'NONE', #41, #40, #39 ) ;
#43 = CIRCLE ( 'NONE', #42, 12.70000000000000300 ) ;
#44 = CARTESIAN_POINT ( 'NONE',  ( 0.0000000000000000000, 12.69999999999999900, -2.000000000000000000 ) ) ;
#45 = CYLINDRICAL_SURFACE ( 'NONE', #62, 12.69999999999999900 ) ;
#46 = FACE_OUTER_BOUND ( 'NONE', #156, .T. ) ;
#47 = CARTESIAN_POINT ( 'NONE',  ( 0.0000000000000000000, 12.69999999999986800, 1.712348050545320400 ) ) ;
#48 = DIRECTION ( 'NONE',  ( 0.0000000000000000000, 1.000000000000000000, 3.073328992872296400E-016 ) ) ;
#49 = DIRECTION ( 'NONE',  ( 0.0000000000000000000, 3.061515884555943100E-016, -1.000000000000000000 ) ) ;
#50 = CARTESIAN_POINT ( 'NONE',  ( 0.0000000000000000000, 8.547752349680204900E-016, -2.000000000000004000 ) ) ;
#51 = AXIS2_PLACEMENT_3D ( 'NONE', #50, #49, #48 ) ;
#52 = CIRCLE ( 'NONE', #51, 12.69999999999999900 ) ;
#53 = DIRECTION ( 'NONE',  ( 0.0000000000000000000, 3.061515884555943100E-016, -1.000000000000000000 ) ) ;
#54 = VECTOR ( 'NONE', #53, 1000.000000000000000 ) ;
#55 = CARTESIAN_POINT ( 'NONE',  ( 1.555250069354419100E-015, -12.69999999999999900, -2.000000000000004000 ) ) ;
#56 =( NAMED_UNIT ( * ) SI_UNIT ( $, .STERADIAN. ) SOLID_ANGLE_UNIT ( ) );
#57 =( NAMED_UNIT ( * ) PLANE_ANGLE_UNIT ( ) SI_UNIT ( $, .RADIAN. ) );
#58 =( LENGTH_UNIT ( ) NAMED_UNIT ( * ) SI_UNIT ( .MILLI., .METRE. ) );
#59 = DIRECTION ( 'NONE',  ( 0.0000000000000000000, 1.000000000000000000, 3.073328992872296400E-016 ) ) ;
#60 = DIRECTION ( 'NONE',  ( 0.0000000000000000000, 3.061515884555943100E-016, -1.000000000000000000 ) ) ;
#61 = CARTESIAN_POINT ( 'NONE',  ( 0.0000000000000000000, 8.547752349680193100E-016, -2.000000000000000000 ) ) ;
#62 = AXIS2_PLACEMENT_3D ( 'NONE', #61, #60, #59 ) ;
#63 = DIRECTION ( 'NONE',  ( 1.000000000000000000, 0.0000000000000000000, 0.0000000000000000000 ) ) ;
#64 = DIRECTION ( 'NONE',  ( 0.0000000000000000000, 0.0000000000000000000, 1.000000000000000000 ) ) ;
#65 = CARTESIAN_POINT ( 'NONE',  ( 0.0000000000000000000, 0.0000000000000000000, 0.0000000000000000000 ) ) ;
#66 = AXIS2_PLACEMENT_3D ( 'NONE', #65, #64, #63 ) ;
#67 = DATE_AND_TIME ( #142, #143 ) ;
#68 = COORDINATED_UNIVERSAL_TIME_OFFSET ( 5, 0, .BEHIND. ) ;
#69 = APPROVAL_PERSON_ORGANIZATION ( #73, #71, #70 ) ;
#70 = APPROVAL_ROLE ( '' ) ;
#71 = APPROVAL ( #72, 'UNSPECIFIED' ) ;
#72 = APPROVAL_STATUS ( 'not_yet_approved' ) ;
#73 = PERSON_AND_ORGANIZATION ( #129, #77 ) ;
#74 = DESIGN_CONTEXT ( 'detailed design', #104, 'design' ) ;
#75 = PERSON_AND_ORGANIZATION_ROLE ( 'design_owner' ) ;
#76 = PERSON_AND_ORGANIZATION ( #129, #77 ) ;
#77 = ORGANIZATION ( 'UNSPECIFIED', 'UNSPECIFIED', '' ) ;
#78 = CC_DESIGN_PERSON_AND_ORGANIZATION_ASSIGNMENT ( #80, #79, ( #81 ) ) ;
#79 = PERSON_AND_ORGANIZATION_ROLE ( 'classification_officer' ) ;
#80 = PERSON_AND_ORGANIZATION ( #129, #77 ) ;
#81 = SECURITY_CLASSIFICATION ( '', '', #82 ) ;
#82 = SECURITY_CLASSIFICATION_LEVEL ( 'unclassified' ) ;
#83 = CC_DESIGN_PERSON_AND_ORGANIZATION_ASSIGNMENT ( #85, #84, ( #126 ) ) ;
#84 = PERSON_AND_ORGANIZATION_ROLE ( 'design_supplier' ) ;
#85 = PERSON_AND_ORGANIZATION ( #129, #77 ) ;
#86 = CC_DESIGN_SECURITY_CLASSIFICATION ( #81, ( #126 ) ) ;
#87 = CC_DESIGN_APPROVAL ( #95, ( #81 ) ) ;
#88 = APPROVAL_DATE_TIME ( #89, #95 ) ;
#89 = DATE_AND_TIME ( #90, #91 ) ;
#90 = CALENDAR_DATE ( 2009, 14, 9 ) ;
#91 = LOCAL_TIME ( 16, 49, 40.00000000000000000, #92 ) ;
#92 = COORDINATED_UNIVERSAL_TIME_OFFSET ( 5, 0, .BEHIND. ) ;
#93 = APPROVAL_PERSON_ORGANIZATION ( #117, #95, #94 ) ;
#94 = APPROVAL_ROLE ( '' ) ;
#95 = APPROVAL ( #116, 'UNSPECIFIED' ) ;
#96 = PRODUCT_DEFINITION_SHAPE ( 'NONE', 'NONE',  #102 ) ;
#97 = PRODUCT_RELATED_PRODUCT_CATEGORY ( 'detail', '', ( #98 ) ) ;
#98 = PRODUCT ( '20189-E0W', '20189-E0W', '', ( #99 ) ) ;
#99 = MECHANICAL_CONTEXT ( 'NONE', #101, 'mechanical' ) ;
#100 = APPLICATION_PROTOCOL_DEFINITION ( 'international standard', 'config_control_design', 1994, #101 ) ;
#101 = APPLICATION_CONTEXT ( 'configuration controlled 3d designs of mechanical parts and assemblies' ) ;
#102 = PRODUCT_DEFINITION ( 'UNKNOWN', '', #126, #74 ) ;
#103 = APPLICATION_PROTOCOL_DEFINITION ( 'international standard', 'config_control_design', 1994, #104 ) ;
#104 = APPLICATION_CONTEXT ( 'configuration controlled 3d designs of mechanical parts and assemblies' ) ;
#105 = CC_DESIGN_PERSON_AND_ORGANIZATION_ASSIGNMENT ( #76, #75, ( #98 ) ) ;
#106 = SHAPE_DEFINITION_REPRESENTATION ( #96, #35 ) ;
#107 = DATE_AND_TIME ( #108, #109 ) ;
#108 = CALENDAR_DATE ( 2009, 14, 9 ) ;
#109 = LOCAL_TIME ( 16, 49, 40.00000000000000000, #110 ) ;
#110 = COORDINATED_UNIVERSAL_TIME_OFFSET ( 5, 0, .BEHIND. ) ;
#111 = CC_DESIGN_PERSON_AND_ORGANIZATION_ASSIGNMENT ( #139, #112, ( #102 ) ) ;
#112 = PERSON_AND_ORGANIZATION_ROLE ( 'creator' ) ;
#113 = CC_DESIGN_PERSON_AND_ORGANIZATION_ASSIGNMENT ( #115, #114, ( #126 ) ) ;
#114 = PERSON_AND_ORGANIZATION_ROLE ( 'creator' ) ;
#115 = PERSON_AND_ORGANIZATION ( #129, #77 ) ;
#116 = APPROVAL_STATUS ( 'not_yet_approved' ) ;
#117 = PERSON_AND_ORGANIZATION ( #129, #77 ) ;
#118 = CC_DESIGN_DATE_AND_TIME_ASSIGNMENT ( #120, #119, ( #81 ) ) ;
#119 = DATE_TIME_ROLE ( 'classification_date' ) ;
#120 = DATE_AND_TIME ( #121, #122 ) ;
#121 = CALENDAR_DATE ( 2009, 14, 9 ) ;
#122 = LOCAL_TIME ( 16, 49, 40.00000000000000000, #123 ) ;
#123 = COORDINATED_UNIVERSAL_TIME_OFFSET ( 5, 0, .BEHIND. ) ;
#124 = APPROVAL_STATUS ( 'not_yet_approved' ) ;
#125 = PERSON_AND_ORGANIZATION ( #129, #77 ) ;
#126 = PRODUCT_DEFINITION_FORMATION_WITH_SPECIFIED_SOURCE ( 'ANY', '', #98, .NOT_KNOWN. ) ;
#127 = CC_DESIGN_DATE_AND_TIME_ASSIGNMENT ( #107, #128, ( #102 ) ) ;
#128 = DATE_TIME_ROLE ( 'creation_date' ) ;
#129 = PERSON ( 'UNSPECIFIED', 'UNSPECIFIED', 'UNSPECIFIED', ('UNSPECIFIED'), ('UNSPECIFIED'), ('UNSPECIFIED') ) ;
#130 = CC_DESIGN_APPROVAL ( #138, ( #126 ) ) ;
#131 = APPROVAL_DATE_TIME ( #132, #138 ) ;
#132 = DATE_AND_TIME ( #133, #134 ) ;
#133 = CALENDAR_DATE ( 2009, 14, 9 ) ;
#134 = LOCAL_TIME ( 16, 49, 40.00000000000000000, #135 ) ;
#135 = COORDINATED_UNIVERSAL_TIME_OFFSET ( 5, 0, .BEHIND. ) ;
#136 = APPROVAL_PERSON_ORGANIZATION ( #125, #138, #137 ) ;
#137 = APPROVAL_ROLE ( '' ) ;
#138 = APPROVAL ( #124, 'UNSPECIFIED' ) ;
#139 = PERSON_AND_ORGANIZATION ( #129, #77 ) ;
#140 = CC_DESIGN_APPROVAL ( #71, ( #102 ) ) ;
#141 = APPROVAL_DATE_TIME ( #67, #71 ) ;
#142 = CALENDAR_DATE ( 2009, 14, 9 ) ;
#143 = LOCAL_TIME ( 16, 49, 40.00000000000000000, #68 ) ;
#144 = EDGE_LOOP ( 'NONE', ( #154, #153 ) ) ;
#145 = ORIENTED_EDGE ( 'NONE', *, *, #172, .T. ) ;
#146 = ORIENTED_EDGE ( 'NONE', *, *, #174, .F. ) ;
#147 = ORIENTED_EDGE ( 'NONE', *, *, #151, .F. ) ;
#148 = ADVANCED_FACE ( 'NONE', ( #180 ), #189, .T. ) ;
#149 = ADVANCED_FACE ( 'NONE', ( #197 ), #201, .T. ) ;
#150 = ADVANCED_FACE ( 'NONE', ( #1 ), #24, .T. ) ;
#151 = EDGE_CURVE ( 'NONE', #164, #177, #11, .T. ) ;
#152 = ORIENTED_EDGE ( 'NONE', *, *, #159, .T. ) ;
#153 = ORIENTED_EDGE ( 'NONE', *, *, #176, .T. ) ;
#154 = ORIENTED_EDGE ( 'NONE', *, *, #170, .T. ) ;
#155 = MANIFOLD_SOLID_BREP ( 'NONE', #184 ) ;
#156 = EDGE_LOOP ( 'NONE', ( #146, #145, #152, #173 ) ) ;
#157 = ORIENTED_EDGE ( 'NONE', *, *, #151, .T. ) ;
#158 = EDGE_LOOP ( 'NONE', ( #161, #157, #175 ) ) ;
#159 = EDGE_CURVE ( 'NONE', #177, #171, #12, .T. ) ;
#160 = EDGE_LOOP ( 'NONE', ( #182, #179, #181, #190 ) ) ;
#161 = ORIENTED_EDGE ( 'NONE', *, *, #163, .F. ) ;
#162 = VERTEX_POINT ( 'NONE', #3 ) ;
#163 = EDGE_CURVE ( 'NONE', #164, #162, #34, .T. ) ;
#164 = VERTEX_POINT ( 'NONE', #30 ) ;
#165 = ORIENTED_EDGE ( 'NONE', *, *, #163, .T. ) ;
#166 = ADVANCED_FACE ( 'NONE', ( #29 ), #28, .T. ) ;
#167 = VERTEX_POINT ( 'NONE', #22 ) ;
#168 = ORIENTED_EDGE ( 'NONE', *, *, #169, .F. ) ;
#169 = EDGE_CURVE ( 'NONE', #177, #162, #21, .T. ) ;
#170 = EDGE_CURVE ( 'NONE', #171, #167, #185, .T. ) ;
#171 = VERTEX_POINT ( 'NONE', #44 ) ;
#172 = EDGE_CURVE ( 'NONE', #162, #177, #43, .T. ) ;
#173 = ORIENTED_EDGE ( 'NONE', *, *, #176, .F. ) ;
#174 = EDGE_CURVE ( 'NONE', #162, #167, #38, .T. ) ;
#175 = ORIENTED_EDGE ( 'NONE', *, *, #172, .F. ) ;
#176 = EDGE_CURVE ( 'NONE', #167, #171, #52, .T. ) ;
#177 = VERTEX_POINT ( 'NONE', #47 ) ;
#178 = CARTESIAN_POINT ( 'NONE',  ( 0.0000000000000000000, 3.398037710586334000E-014, -278.5000000000001700 ) ) ;
#179 = ORIENTED_EDGE ( 'NONE', *, *, #174, .T. ) ;
#180 = FACE_OUTER_BOUND ( 'NONE', #183, .T. ) ;
#181 = ORIENTED_EDGE ( 'NONE', *, *, #170, .F. ) ;
#182 = ORIENTED_EDGE ( 'NONE', *, *, #169, .T. ) ;
#183 = EDGE_LOOP ( 'NONE', ( #147, #165, #168 ) ) ;
#184 = CLOSED_SHELL ( 'NONE', ( #150, #148, #166, #149, #191 ) ) ;
#185 = CIRCLE ( 'NONE', #192, 12.69999999999999900 ) ;
#186 = DIRECTION ( 'NONE',  ( 0.0000000000000000000, 1.000000000000000000, 3.958014348039772700E-016 ) ) ;
#187 = DIRECTION ( 'NONE',  ( 1.000000000000000000, 0.0000000000000000000, 0.0000000000000000000 ) ) ;
#188 = AXIS2_PLACEMENT_3D ( 'NONE', #178, #187, #186 ) ;
#189 = SPHERICAL_SURFACE ( 'NONE', #188, 280.5000000000000600 ) ;
#190 = ORIENTED_EDGE ( 'NONE', *, *, #159, .F. ) ;
#191 = ADVANCED_FACE ( 'NONE', ( #46 ), #45, .T. ) ;
#192 = AXIS2_PLACEMENT_3D ( 'NONE', #193, #194, #195 ) ;
#193 = CARTESIAN_POINT ( 'NONE',  ( 0.0000000000000000000, 8.547752349680204900E-016, -2.000000000000004000 ) ) ;
#194 = DIRECTION ( 'NONE',  ( 0.0000000000000000000, 3.061515884555943100E-016, -1.000000000000000000 ) ) ;
#195 = DIRECTION ( 'NONE',  ( 0.0000000000000000000, 1.000000000000000000, 3.073328992872296400E-016 ) ) ;
#196 = AXIS2_PLACEMENT_3D ( 'NONE', #200, #199, #198 ) ;
#197 = FACE_OUTER_BOUND ( 'NONE', #158, .T. ) ;
#198 = DIRECTION ( 'NONE',  ( 0.0000000000000000000, 1.000000000000000000, 3.958014348039772700E-016 ) ) ;
#199 = DIRECTION ( 'NONE',  ( 1.000000000000000000, 0.0000000000000000000, 0.0000000000000000000 ) ) ;
#200 = CARTESIAN_POINT ( 'NONE',  ( 0.0000000000000000000, 3.398037710586334000E-014, -278.5000000000001700 ) ) ;
#201 = SPHERICAL_SURFACE ( 'NONE', #196, 280.5000000000000600 ) ;
ENDSEC;
END-ISO-10303-21;
