ISO-10303-21;
HEADER;
FILE_DESCRIPTION (( 'STEP AP203' ),
    '1' );
FILE_NAME ('Web Model 46068_46074.step',
    '2017-07-13T13:29:36',
    ( '' ),
    ( '' ),
    'SwSTEP 2.0',
    'SolidWorks 2016',
    '' );
FILE_SCHEMA (( 'CONFIG_CONTROL_DESIGN' ));
ENDSEC;

DATA;
#1 = EDGE_LOOP ( 'NONE', ( #174, #203, #200, #43 ) ) ;
#2 = PERSON_AND_ORGANIZATION ( #3, #62 ) ;
#3 = PERSON ( 'UNSPECIFIED', 'UNSPECIFIED', 'UNSPECIFIED', ('UNSPECIFIED'), ('UNSPECIFIED'), ('UNSPECIFIED') ) ;
#4 = CARTESIAN_POINT ( 'NONE',  ( -12.49999999999999800, -12.50000000000000000, -1.500000000000000000 ) ) ;
#5 = ADVANCED_FACE ( 'NONE', ( #76 ), #148, .F. ) ;
#6 = VERTEX_POINT ( 'NONE', #228 ) ;
#7 = MANIFOLD_SOLID_BREP ( 'Boss-Extrude1', #107 ) ;
#8 = EDGE_CURVE ( 'NONE', #214, #133, #123, .T. ) ;
#9 = DIRECTION ( 'NONE',  ( -0.0000000000000000000, -1.000000000000000000, -0.0000000000000000000 ) ) ;
#10 = ORIENTED_EDGE ( 'NONE', *, *, #230, .T. ) ;
#11 = ADVANCED_FACE ( 'NONE', ( #120 ), #13, .F. ) ;
#12 = CARTESIAN_POINT ( 'NONE',  ( 12.50000000000000000, -12.50000000000000000, -1.500000000000000000 ) ) ;
#13 = PLANE ( 'NONE',  #125 ) ;
#14 = CARTESIAN_POINT ( 'NONE',  ( -12.49999999999999800, 12.49999999999999800, 1.500000000000000000 ) ) ;
#15 = DATE_AND_TIME ( #126, #105 ) ;
#16 = EDGE_CURVE ( 'NONE', #64, #159, #34, .T. ) ;
#17 = LINE ( 'NONE', #14, #53 ) ;
#18 = LINE ( 'NONE', #227, #137 ) ;
#19 = FACE_OUTER_BOUND ( 'NONE', #81, .T. ) ;
#20 = VECTOR ( 'NONE', #72, 1000.000000000000000 ) ;
#21 = CARTESIAN_POINT ( 'NONE',  ( 12.50000000000000000, -12.50000000000000000, 1.500000000000000000 ) ) ;
#22 = LOCAL_TIME ( 9, 29, 36.00000000000000000, #108 ) ;
#23 = LINE ( 'NONE', #30, #219 ) ;
#24 = SECURITY_CLASSIFICATION_LEVEL ( 'unclassified' ) ;
#25 = EDGE_CURVE ( 'NONE', #159, #139, #23, .T. ) ;
#26 = DIRECTION ( 'NONE',  ( 0.0000000000000000000, -0.0000000000000000000, 1.000000000000000000 ) ) ;
#27 = DIRECTION ( 'NONE',  ( -0.0000000000000000000, -0.0000000000000000000, -1.000000000000000000 ) ) ;
#28 = DIRECTION ( 'NONE',  ( 0.0000000000000000000, 0.0000000000000000000, 1.000000000000000000 ) ) ;
#29 = VECTOR ( 'NONE', #85, 1000.000000000000000 ) ;
#30 = CARTESIAN_POINT ( 'NONE',  ( -12.49999999999999800, -12.50000000000000000, 1.500000000000000000 ) ) ;
#31 = MECHANICAL_CONTEXT ( 'NONE', #128, 'mechanical' ) ;
#32 = EDGE_CURVE ( 'NONE', #139, #69, #67, .T. ) ;
#33 = VECTOR ( 'NONE', #60, 1000.000000000000000 ) ;
#34 = LINE ( 'NONE', #168, #184 ) ;
#35 = CARTESIAN_POINT ( 'NONE',  ( 0.0000000000000000000, 0.0000000000000000000, 1.500000000000000000 ) ) ;
#36 = PERSON_AND_ORGANIZATION ( #3, #62 ) ;
#37 = ORIENTED_EDGE ( 'NONE', *, *, #52, .F. ) ;
#38 = EDGE_CURVE ( 'NONE', #124, #214, #167, .T. ) ;
#39 = PERSON_AND_ORGANIZATION ( #3, #62 ) ;
#40 = DIRECTION ( 'NONE',  ( -0.0000000000000000000, -0.0000000000000000000, -1.000000000000000000 ) ) ;
#41 = EDGE_LOOP ( 'NONE', ( #90, #101, #37, #63 ) ) ;
#42 = DATE_AND_TIME ( #211, #146 ) ;
#43 = ORIENTED_EDGE ( 'NONE', *, *, #175, .T. ) ;
#44 = PLANE ( 'NONE',  #216 ) ;
#45 = CARTESIAN_POINT ( 'NONE',  ( -12.49999999999999800, 12.49999999999999800, 1.500000000000000000 ) ) ;
#46 = APPROVAL_ROLE ( '' ) ;
#47 = APPROVAL_DATE_TIME ( #50, #114 ) ;
#48 = ORIENTED_EDGE ( 'NONE', *, *, #213, .F. ) ;
#49 = APPROVAL_PERSON_ORGANIZATION ( #235, #210, #188 ) ;
#50 = DATE_AND_TIME ( #187, #140 ) ;
#51 = DIRECTION ( 'NONE',  ( 0.0000000000000000000, 0.0000000000000000000, -1.000000000000000000 ) ) ;
#52 = EDGE_CURVE ( 'NONE', #69, #64, #196, .T. ) ;
#53 = VECTOR ( 'NONE', #40, 1000.000000000000000 ) ;
#54 = PERSON_AND_ORGANIZATION ( #3, #62 ) ;
#55 = DIRECTION ( 'NONE',  ( -1.000000000000000000, 0.0000000000000000000, -0.0000000000000000000 ) ) ;
#56 = VECTOR ( 'NONE', #206, 1000.000000000000000 ) ;
#57 = VECTOR ( 'NONE', #151, 1000.000000000000000 ) ;
#58 = CARTESIAN_POINT ( 'NONE',  ( 12.50000000000000000, -12.50000000000000000, 1.500000000000000000 ) ) ;
#59 = APPROVAL_STATUS ( 'not_yet_approved' ) ;
#60 = DIRECTION ( 'NONE',  ( -0.0000000000000000000, -0.0000000000000000000, -1.000000000000000000 ) ) ;
#61 = APPROVAL_ROLE ( '' ) ;
#62 = ORGANIZATION ( 'UNSPECIFIED', 'UNSPECIFIED', '' ) ;
#63 = ORIENTED_EDGE ( 'NONE', *, *, #99, .T. ) ;
#64 = VERTEX_POINT ( 'NONE', #190 ) ;
#65 = UNCERTAINTY_MEASURE_WITH_UNIT (LENGTH_MEASURE( 1.000000000000000100E-005 ), #135, 'distance_accuracy_value', 'NONE');
#66 = ORIENTED_EDGE ( 'NONE', *, *, #198, .T. ) ;
#67 = LINE ( 'NONE', #154, #29 ) ;
#68 = PRODUCT_RELATED_PRODUCT_CATEGORY ( 'detail', '', ( #234 ) ) ;
#69 = VERTEX_POINT ( 'NONE', #91 ) ;
#70 = FACE_OUTER_BOUND ( 'NONE', #172, .T. ) ;
#71 = PERSON_AND_ORGANIZATION_ROLE ( 'creator' ) ;
#72 = DIRECTION ( 'NONE',  ( 1.000000000000000000, 0.0000000000000000000, 0.0000000000000000000 ) ) ;
#73 = ORIENTED_EDGE ( 'NONE', *, *, #95, .T. ) ;
#74 = DIRECTION ( 'NONE',  ( 0.0000000000000000000, 0.0000000000000000000, 1.000000000000000000 ) ) ;
#75 = APPLICATION_PROTOCOL_DEFINITION ( 'international standard', 'config_control_design', 1994, #128 ) ;
#76 = FACE_OUTER_BOUND ( 'NONE', #84, .T. ) ;
#77 = APPROVAL_DATE_TIME ( #42, #210 ) ;
#78 = ORIENTED_EDGE ( 'NONE', *, *, #16, .T. ) ;
#79 = CARTESIAN_POINT ( 'NONE',  ( 12.50000000000000000, 12.49999999999999800, -1.500000000000000000 ) ) ;
#80 = SHAPE_DEFINITION_REPRESENTATION ( #199, #177 ) ;
#81 = EDGE_LOOP ( 'NONE', ( #145, #157, #78, #182 ) ) ;
#82 = COORDINATED_UNIVERSAL_TIME_OFFSET ( 5, 0, .BEHIND. ) ;
#83 = CARTESIAN_POINT ( 'NONE',  ( -12.49999999999999800, 12.49999999999999800, -1.500000000000000000 ) ) ;
#84 = EDGE_LOOP ( 'NONE', ( #189, #96, #226, #10 ) ) ;
#85 = DIRECTION ( 'NONE',  ( 0.0000000000000000000, 1.000000000000000000, 0.0000000000000000000 ) ) ;
#86 = PERSON_AND_ORGANIZATION_ROLE ( 'creator' ) ;
#87 = PERSON_AND_ORGANIZATION ( #3, #62 ) ;
#88 = ADVANCED_FACE ( 'NONE', ( #138 ), #44, .F. ) ;
#89 = AXIS2_PLACEMENT_3D ( 'NONE', #35, #51, #141 ) ;
#90 = ORIENTED_EDGE ( 'NONE', *, *, #213, .T. ) ;
#91 = CARTESIAN_POINT ( 'NONE',  ( 12.50000000000000000, 12.49999999999999800, 1.500000000000000000 ) ) ;
#92 = DIRECTION ( 'NONE',  ( 0.0000000000000000000, 0.0000000000000000000, -1.000000000000000000 ) ) ;
#93 = PLANE ( 'NONE',  #212 ) ;
#94 = APPROVAL_PERSON_ORGANIZATION ( #39, #218, #46 ) ;
#95 = EDGE_CURVE ( 'NONE', #6, #124, #110, .T. ) ;
#96 = ORIENTED_EDGE ( 'NONE', *, *, #175, .F. ) ;
#97 = LOCAL_TIME ( 9, 29, 36.00000000000000000, #229 ) ;
#98 = FACE_OUTER_BOUND ( 'NONE', #232, .T. ) ;
#99 = EDGE_CURVE ( 'NONE', #69, #133, #215, .T. ) ;
#100 = APPROVAL_DATE_TIME ( #150, #218 ) ;
#101 = ORIENTED_EDGE ( 'NONE', *, *, #198, .F. ) ;
#102 = DATE_AND_TIME ( #158, #97 ) ;
#103 = LINE ( 'NONE', #21, #57 ) ;
#104 =( GEOMETRIC_REPRESENTATION_CONTEXT ( 3 ) GLOBAL_UNCERTAINTY_ASSIGNED_CONTEXT ( ( #65 ) ) GLOBAL_UNIT_ASSIGNED_CONTEXT ( ( #135, #130, #112 ) ) REPRESENTATION_CONTEXT ( 'NONE', 'WORKASPACE' ) );
#105 = LOCAL_TIME ( 9, 29, 36.00000000000000000, #178 ) ;
#106 = DIRECTION ( 'NONE',  ( 0.0000000000000000000, 0.0000000000000000000, -1.000000000000000000 ) ) ;
#107 = CLOSED_SHELL ( 'NONE', ( #88, #11, #144, #5, #111, #129 ) ) ;
#108 = COORDINATED_UNIVERSAL_TIME_OFFSET ( 5, 0, .BEHIND. ) ;
#109 = DIRECTION ( 'NONE',  ( 1.000000000000000000, 0.0000000000000000000, 0.0000000000000000000 ) ) ;
#110 = LINE ( 'NONE', #156, #179 ) ;
#111 = ADVANCED_FACE ( 'NONE', ( #19 ), #122, .F. ) ;
#112 =( NAMED_UNIT ( * ) SI_UNIT ( $, .STERADIAN. ) SOLID_ANGLE_UNIT ( ) );
#113 = CARTESIAN_POINT ( 'NONE',  ( 0.0000000000000000000, 0.0000000000000000000, 0.0000000000000000000 ) ) ;
#114 = APPROVAL ( #169, 'UNSPECIFIED' ) ;
#115 = ORIENTED_EDGE ( 'NONE', *, *, #95, .F. ) ;
#116 = DIRECTION ( 'NONE',  ( 0.0000000000000000000, 1.000000000000000000, 0.0000000000000000000 ) ) ;
#117 = CARTESIAN_POINT ( 'NONE',  ( -12.49999999999999800, -12.50000000000000000, 1.500000000000000000 ) ) ;
#118 = ORIENTED_EDGE ( 'NONE', *, *, #8, .F. ) ;
#119 = AXIS2_PLACEMENT_3D ( 'NONE', #113, #28, #109 ) ;
#120 = FACE_OUTER_BOUND ( 'NONE', #41, .T. ) ;
#121 = CC_DESIGN_PERSON_AND_ORGANIZATION_ASSIGNMENT ( #54, #223, ( #233 ) ) ;
#122 = PLANE ( 'NONE',  #89 ) ;
#123 = LINE ( 'NONE', #207, #231 ) ;
#124 = VERTEX_POINT ( 'NONE', #4 ) ;
#125 = AXIS2_PLACEMENT_3D ( 'NONE', #186, #224, #127 ) ;
#126 = CALENDAR_DATE ( 2017, 13, 7 ) ;
#127 = DIRECTION ( 'NONE',  ( 0.0000000000000000000, -0.0000000000000000000, -1.000000000000000000 ) ) ;
#128 = APPLICATION_CONTEXT ( 'configuration controlled 3d designs of mechanical parts and assemblies' ) ;
#129 = ADVANCED_FACE ( 'NONE', ( #70 ), #180, .T. ) ;
#130 =( NAMED_UNIT ( * ) PLANE_ANGLE_UNIT ( ) SI_UNIT ( $, .RADIAN. ) );
#131 = PRODUCT_DEFINITION ( 'UNKNOWN', '', #233, #160 ) ;
#132 = CARTESIAN_POINT ( 'NONE',  ( 12.50000000000000000, 12.49999999999999800, 1.500000000000000000 ) ) ;
#133 = VERTEX_POINT ( 'NONE', #79 ) ;
#134 = CARTESIAN_POINT ( 'NONE',  ( -12.49999999999999800, -12.50000000000000000, 1.500000000000000000 ) ) ;
#135 =( LENGTH_UNIT ( ) NAMED_UNIT ( * ) SI_UNIT ( .MILLI., .METRE. ) );
#136 = SECURITY_CLASSIFICATION ( '', '', #24 ) ;
#137 = VECTOR ( 'NONE', #27, 1000.000000000000000 ) ;
#138 = FACE_OUTER_BOUND ( 'NONE', #1, .T. ) ;
#139 = VERTEX_POINT ( 'NONE', #183 ) ;
#140 = LOCAL_TIME ( 9, 29, 36.00000000000000000, #171 ) ;
#141 = DIRECTION ( 'NONE',  ( -1.000000000000000000, 0.0000000000000000000, -0.0000000000000000000 ) ) ;
#142 = DIRECTION ( 'NONE',  ( -0.0000000000000000000, -1.000000000000000000, -0.0000000000000000000 ) ) ;
#143 = CC_DESIGN_APPROVAL ( #218, ( #131 ) ) ;
#144 = ADVANCED_FACE ( 'NONE', ( #98 ), #93, .F. ) ;
#145 = ORIENTED_EDGE ( 'NONE', *, *, #32, .T. ) ;
#146 = LOCAL_TIME ( 9, 29, 36.00000000000000000, #82 ) ;
#147 = CC_DESIGN_PERSON_AND_ORGANIZATION_ASSIGNMENT ( #87, #149, ( #136 ) ) ;
#148 = PLANE ( 'NONE',  #192 ) ;
#149 = PERSON_AND_ORGANIZATION_ROLE ( 'classification_officer' ) ;
#150 = DATE_AND_TIME ( #202, #22 ) ;
#151 = DIRECTION ( 'NONE',  ( -0.0000000000000000000, -0.0000000000000000000, -1.000000000000000000 ) ) ;
#152 = DIRECTION ( 'NONE',  ( -1.000000000000000000, -0.0000000000000000000, -0.0000000000000000000 ) ) ;
#153 = CC_DESIGN_APPROVAL ( #114, ( #233 ) ) ;
#154 = CARTESIAN_POINT ( 'NONE',  ( 12.50000000000000000, -12.50000000000000000, 1.500000000000000000 ) ) ;
#155 = PERSON_AND_ORGANIZATION_ROLE ( 'design_owner' ) ;
#156 = CARTESIAN_POINT ( 'NONE',  ( -12.49999999999999800, -12.50000000000000000, -1.500000000000000000 ) ) ;
#157 = ORIENTED_EDGE ( 'NONE', *, *, #52, .T. ) ;
#158 = CALENDAR_DATE ( 2017, 13, 7 ) ;
#159 = VERTEX_POINT ( 'NONE', #117 ) ;
#160 = DESIGN_CONTEXT ( 'detailed design', #163, 'design' ) ;
#161 = CC_DESIGN_PERSON_AND_ORGANIZATION_ASSIGNMENT ( #208, #71, ( #233 ) ) ;
#162 = DIRECTION ( 'NONE',  ( 0.0000000000000000000, 1.000000000000000000, 0.0000000000000000000 ) ) ;
#163 = APPLICATION_CONTEXT ( 'configuration controlled 3d designs of mechanical parts and assemblies' ) ;
#164 = CC_DESIGN_DATE_AND_TIME_ASSIGNMENT ( #102, #201, ( #131 ) ) ;
#165 = DIRECTION ( 'NONE',  ( -1.000000000000000000, 0.0000000000000000000, 0.0000000000000000000 ) ) ;
#166 = CARTESIAN_POINT ( 'NONE',  ( -12.49999999999999800, -12.50000000000000000, 1.500000000000000000 ) ) ;
#167 = LINE ( 'NONE', #209, #20 ) ;
#168 = CARTESIAN_POINT ( 'NONE',  ( -12.49999999999999800, -12.50000000000000000, 1.500000000000000000 ) ) ;
#169 = APPROVAL_STATUS ( 'not_yet_approved' ) ;
#170 = CC_DESIGN_DATE_AND_TIME_ASSIGNMENT ( #15, #185, ( #136 ) ) ;
#171 = COORDINATED_UNIVERSAL_TIME_OFFSET ( 5, 0, .BEHIND. ) ;
#172 = EDGE_LOOP ( 'NONE', ( #118, #222, #115, #48 ) ) ;
#173 = CC_DESIGN_SECURITY_CLASSIFICATION ( #136, ( #233 ) ) ;
#174 = ORIENTED_EDGE ( 'NONE', *, *, #8, .T. ) ;
#175 = EDGE_CURVE ( 'NONE', #139, #214, #103, .T. ) ;
#176 = CC_DESIGN_PERSON_AND_ORGANIZATION_ASSIGNMENT ( #2, #86, ( #131 ) ) ;
#177 = ADVANCED_BREP_SHAPE_REPRESENTATION ( 'Web Model 46068_46074', ( #7, #119 ), #104 ) ;
#178 = COORDINATED_UNIVERSAL_TIME_OFFSET ( 5, 0, .BEHIND. ) ;
#179 = VECTOR ( 'NONE', #142, 1000.000000000000000 ) ;
#180 = PLANE ( 'NONE',  #181 ) ;
#181 = AXIS2_PLACEMENT_3D ( 'NONE', #197, #106, #55 ) ;
#182 = ORIENTED_EDGE ( 'NONE', *, *, #25, .T. ) ;
#183 = CARTESIAN_POINT ( 'NONE',  ( 12.50000000000000000, -12.50000000000000000, 1.500000000000000000 ) ) ;
#184 = VECTOR ( 'NONE', #9, 1000.000000000000000 ) ;
#185 = DATE_TIME_ROLE ( 'classification_date' ) ;
#186 = CARTESIAN_POINT ( 'NONE',  ( -12.49999999999999800, 12.49999999999999800, 1.500000000000000000 ) ) ;
#187 = CALENDAR_DATE ( 2017, 13, 7 ) ;
#188 = APPROVAL_ROLE ( '' ) ;
#189 = ORIENTED_EDGE ( 'NONE', *, *, #38, .T. ) ;
#190 = CARTESIAN_POINT ( 'NONE',  ( -12.49999999999999800, 12.49999999999999800, 1.500000000000000000 ) ) ;
#191 = DIRECTION ( 'NONE',  ( 1.000000000000000000, 0.0000000000000000000, 0.0000000000000000000 ) ) ;
#192 = AXIS2_PLACEMENT_3D ( 'NONE', #134, #162, #26 ) ;
#193 = LINE ( 'NONE', #83, #56 ) ;
#194 = CC_DESIGN_PERSON_AND_ORGANIZATION_ASSIGNMENT ( #36, #155, ( #234 ) ) ;
#195 = ORIENTED_EDGE ( 'NONE', *, *, #230, .F. ) ;
#196 = LINE ( 'NONE', #45, #236 ) ;
#197 = CARTESIAN_POINT ( 'NONE',  ( 0.0000000000000000000, 0.0000000000000000000, -1.500000000000000000 ) ) ;
#198 = EDGE_CURVE ( 'NONE', #64, #6, #17, .T. ) ;
#199 = PRODUCT_DEFINITION_SHAPE ( 'NONE', 'NONE',  #131 ) ;
#200 = ORIENTED_EDGE ( 'NONE', *, *, #32, .F. ) ;
#201 = DATE_TIME_ROLE ( 'creation_date' ) ;
#202 = CALENDAR_DATE ( 2017, 13, 7 ) ;
#203 = ORIENTED_EDGE ( 'NONE', *, *, #99, .F. ) ;
#204 = APPLICATION_PROTOCOL_DEFINITION ( 'international standard', 'config_control_design', 1994, #163 ) ;
#205 = DIRECTION ( 'NONE',  ( 1.000000000000000000, 0.0000000000000000000, 0.0000000000000000000 ) ) ;
#206 = DIRECTION ( 'NONE',  ( -1.000000000000000000, -0.0000000000000000000, -0.0000000000000000000 ) ) ;
#207 = CARTESIAN_POINT ( 'NONE',  ( 12.50000000000000000, -12.50000000000000000, -1.500000000000000000 ) ) ;
#208 = PERSON_AND_ORGANIZATION ( #3, #62 ) ;
#209 = CARTESIAN_POINT ( 'NONE',  ( -12.49999999999999800, -12.50000000000000000, -1.500000000000000000 ) ) ;
#210 = APPROVAL ( #59, 'UNSPECIFIED' ) ;
#211 = CALENDAR_DATE ( 2017, 13, 7 ) ;
#212 = AXIS2_PLACEMENT_3D ( 'NONE', #166, #191, #92 ) ;
#213 = EDGE_CURVE ( 'NONE', #133, #6, #193, .T. ) ;
#214 = VERTEX_POINT ( 'NONE', #12 ) ;
#215 = LINE ( 'NONE', #132, #33 ) ;
#216 = AXIS2_PLACEMENT_3D ( 'NONE', #58, #165, #74 ) ;
#217 = PERSON_AND_ORGANIZATION ( #3, #62 ) ;
#218 = APPROVAL ( #225, 'UNSPECIFIED' ) ;
#219 = VECTOR ( 'NONE', #205, 1000.000000000000000 ) ;
#220 = ORIENTED_EDGE ( 'NONE', *, *, #16, .F. ) ;
#221 = APPROVAL_PERSON_ORGANIZATION ( #217, #114, #61 ) ;
#222 = ORIENTED_EDGE ( 'NONE', *, *, #38, .F. ) ;
#223 = PERSON_AND_ORGANIZATION_ROLE ( 'design_supplier' ) ;
#224 = DIRECTION ( 'NONE',  ( 0.0000000000000000000, -1.000000000000000000, 0.0000000000000000000 ) ) ;
#225 = APPROVAL_STATUS ( 'not_yet_approved' ) ;
#226 = ORIENTED_EDGE ( 'NONE', *, *, #25, .F. ) ;
#227 = CARTESIAN_POINT ( 'NONE',  ( -12.49999999999999800, -12.50000000000000000, 1.500000000000000000 ) ) ;
#228 = CARTESIAN_POINT ( 'NONE',  ( -12.49999999999999800, 12.49999999999999800, -1.500000000000000000 ) ) ;
#229 = COORDINATED_UNIVERSAL_TIME_OFFSET ( 5, 0, .BEHIND. ) ;
#230 = EDGE_CURVE ( 'NONE', #159, #124, #18, .T. ) ;
#231 = VECTOR ( 'NONE', #116, 1000.000000000000000 ) ;
#232 = EDGE_LOOP ( 'NONE', ( #73, #195, #220, #66 ) ) ;
#233 = PRODUCT_DEFINITION_FORMATION_WITH_SPECIFIED_SOURCE ( 'ANY', '', #234, .NOT_KNOWN. ) ;
#234 = PRODUCT ( 'Web Model 46068_46074', 'Web Model 46068_46074', '', ( #31 ) ) ;
#235 = PERSON_AND_ORGANIZATION ( #3, #62 ) ;
#236 = VECTOR ( 'NONE', #152, 1000.000000000000000 ) ;
#237 = CC_DESIGN_APPROVAL ( #210, ( #136 ) ) ;
ENDSEC;
END-ISO-10303-21;
