  0
SECTION
  2
HEADER
  9
$ACADVER
  1
AC1009
  9
$INSBASE
 10
0.0
 20
0.0
 30
0.0
  9
$EXTMIN
 10
-0.001475
 20
0.0
 30
0.0
  9
$EXTMAX
 10
9.994675
 20
7.560485
 30
0.23292
  9
$LIMMIN
 10
0.0
 20
0.0
  9
$LIMMAX
 10
10.15
 20
7.6
  9
$ORTHOMODE
 70
     0
  9
$REGENMODE
 70
     1
  9
$FILLMODE
 70
     1
  9
$QTEXTMODE
 70
     0
  9
$MIRRTEXT
 70
     0
  9
$DRAGMODE
 70
     2
  9
$LTSCALE
 40
0.25
  9
$OSMODE
 70
     0
  9
$ATTMODE
 70
     1
  9
$TEXTSIZE
 40
0.07
  9
$TRACEWID
 40
0.019
  9
$TEXTSTYLE
  7
STANDARD
  9
$CLAYER
  8
DIM1
  9
$CELTYPE
  6
BYLAYER
  9
$CECOLOR
 62
   256
  9
$DIMSCALE
 40
1.0
  9
$DIMASZ
 40
0.18
  9
$DIMEXO
 40
0.0625
  9
$DIMDLI
 40
0.38
  9
$DIMRND
 40
0.0
  9
$DIMDLE
 40
0.0
  9
$DIMEXE
 40
0.06
  9
$DIMTP
 40
0.0
  9
$DIMTM
 40
0.0
  9
$DIMTXT
 40
0.08
  9
$DIMCEN
 40
0.09
  9
$DIMTSZ
 40
0.0
  9
$DIMTOL
 70
     0
  9
$DIMLIM
 70
     0
  9
$DIMTIH
 70
     1
  9
$DIMTOH
 70
     1
  9
$DIMSE1
 70
     0
  9
$DIMSE2
 70
     0
  9
$DIMTAD
 70
     0
  9
$DIMZIN
 70
     0
  9
$DIMBLK
  1

  9
$DIMASO
 70
     0
  9
$DIMSHO
 70
     0
  9
$DIMPOST
  1

  9
$DIMAPOST
  1

  9
$DIMALT
 70
     0
  9
$DIMALTD
 70
     2
  9
$DIMALTF
 40
25.4
  9
$DIMLFAC
 40
1.0
  9
$DIMTOFL
 70
     0
  9
$DIMTVP
 40
0.0
  9
$DIMTIX
 70
     1
  9
$DIMSOXD
 70
     0
  9
$DIMSAH
 70
     0
  9
$DIMBLK1
  1

  9
$DIMBLK2
  1

  9
$DIMSTYLE
  2
STANDARD
  9
$DIMCLRD
 70
     0
  9
$DIMCLRE
 70
     0
  9
$DIMCLRT
 70
     0
  9
$DIMTFAC
 40
1.0
  9
$DIMGAP
 40
0.09
  9
$LUNITS
 70
     2
  9
$LUPREC
 70
     3
  9
$SKETCHINC
 40
0.01
  9
$FILLETRAD
 40
0.03
  9
$AUNITS
 70
     0
  9
$AUPREC
 70
     0
  9
$MENU
  1
acad
  9
$ELEVATION
 40
0.0
  9
$PELEVATION
 40
0.0
  9
$THICKNESS
 40
0.18
  9
$LIMCHECK
 70
     1
  9
$BLIPMODE
 70
     1
  9
$CHAMFERA
 40
0.04
  9
$CHAMFERB
 40
0.04
  9
$SKPOLY
 70
     0
  9
$TDCREATE
 40
2449675.639141
  9
$TDUPDATE
 40
2451361.447718
  9
$TDINDWG
 40
0.001141
  9
$TDUSRTIMER
 40
0.001141
  9
$USRTIMER
 70
     1
  9
$ANGBASE
 50
0.0
  9
$ANGDIR
 70
     0
  9
$PDMODE
 70
     0
  9
$PDSIZE
 40
0.0
  9
$PLINEWID
 40
0.0
  9
$COORDS
 70
     2
  9
$SPLFRAME
 70
     0
  9
$SPLINETYPE
 70
     6
  9
$SPLINESEGS
 70
     8
  9
$ATTDIA
 70
     0
  9
$ATTREQ
 70
     1
  9
$HANDLING
 70
     1
  9
$HANDSEED
  5
2C5
  9
$SURFTAB1
 70
     6
  9
$SURFTAB2
 70
     6
  9
$SURFTYPE
 70
     6
  9
$SURFU
 70
     6
  9
$SURFV
 70
     6
  9
$UCSNAME
  2

  9
$UCSORG
 10
1.5298
 20
4.838525
 30
0.0
  9
$UCSXDIR
 10
1.0
 20
0.0
 30
0.0
  9
$UCSYDIR
 10
0.0
 20
1.0
 30
0.0
  9
$PUCSNAME
  2

  9
$PUCSORG
 10
0.0
 20
0.0
 30
0.0
  9
$PUCSXDIR
 10
1.0
 20
0.0
 30
0.0
  9
$PUCSYDIR
 10
0.0
 20
1.0
 30
0.0
  9
$USERI1
 70
     0
  9
$USERI2
 70
     0
  9
$USERI3
 70
     0
  9
$USERI4
 70
     0
  9
$USERI5
 70
     0
  9
$USERR1
 40
0.0
  9
$USERR2
 40
0.0
  9
$USERR3
 40
0.0
  9
$USERR4
 40
0.0
  9
$USERR5
 40
0.0
  9
$WORLDVIEW
 70
     1
  9
$SHADEDGE
 70
     3
  9
$SHADEDIF
 70
    70
  9
$TILEMODE
 70
     1
  9
$MAXACTVP
 70
     4
  9
$PLIMCHECK
 70
     0
  9
$PEXTMIN
 10
1.000000E+020
 20
1.000000E+020
 30
1.000000E+020
  9
$PEXTMAX
 10
-1.000000E+020
 20
-1.000000E+020
 30
-1.000000E+020
  9
$PLIMMIN
 10
0.0
 20
0.0
  9
$PLIMMAX
 10
12.0
 20
9.0
  9
$UNITMODE
 70
     0
  9
$VISRETAIN
 70
     0
  9
$PLINEGEN
 70
     0
  9
$PSLTSCALE
 70
     0
  0
ENDSEC
  0
SECTION
  2
TABLES
  0
TABLE
  2
VPORT
 70
     5
  0
VPORT
  2
*ACTIVE
 70
     0
 10
0.0
 20
0.0
 11
1.0
 21
1.0
 12
4.9966
 22
3.780243
 13
0.0
 23
0.0
 14
0.005
 24
0.005
 15
0.25
 25
0.25
 16
0.0
 26
0.0
 36
1.0
 17
0.0
 27
0.0
 37
0.0
 40
7.675912
 41
1.829082
 42
50.0
 43
0.0
 44
0.0
 50
0.0
 51
0.0
 71
     0
 72
   100
 73
     0
 74
     0
 75
     1
 76
     0
 77
     0
 78
     0
  0
ENDTAB
  0
TABLE
  2
LTYPE
 70
     4
  0
LTYPE
  2
CONTINUOUS
 70
     0
  3
Solid line
 72
    65
 73
     0
 40
0.0
  0
ENDTAB
  0
TABLE
  2
LAYER
 70
     9
  0
LAYER
  2
0
 70
     0
 62
     7
  6
CONTINUOUS
  0
LAYER
  2
BORDER
 70
     0
 62
     7
  6
CONTINUOUS
  0
LAYER
  2
SHEET1
 70
     0
 62
     7
  6
CONTINUOUS
  0
LAYER
  2
DIM1
 70
     0
 62
     7
  6
CONTINUOUS
  0
LAYER
  2
D1
 70
     0
 62
     7
  6
CONTINUOUS
  0
ENDTAB
  0
TABLE
  2
STYLE
 70
     1
  0
STYLE
  2
STANDARD
 70
     0
 40
0.0
 41
1.0
 50
0.0
 71
     0
 42
0.07
  3
TXT
  4

  0
ENDTAB
  0
TABLE
  2
VIEW
 70
     0
  0
ENDTAB
  0
TABLE
  2
UCS
 70
     0
  0
ENDTAB
  0
TABLE
  2
APPID
 70
     5
  0
APPID
  2
ACAD
 70
     0
  0
APPID
  2
CONTENTTABDATA
 70
     0
  0
APPID
  2
CONTENTCURRENTTAB
 70
     0
  0
APPID
  2
CONTENTBLOCKDESCRIPTION
 70
     0
  0
APPID
  2
CONTENTBLOCKICON
 70
     0
  0
ENDTAB
  0
TABLE
  2
DIMSTYLE
 70
     1
  0
DIMSTYLE
  2
STANDARD
 70
     0
  3

  4

  5

  6

  7

 40
1.0
 41
0.18
 42
0.0625
 43
0.38
 44
0.18
 45
0.0
 46
0.0
 47
0.0
 48
0.0
140
0.18
141
0.09
142
0.0
143
25.4
144
1.0
145
0.0
146
1.0
147
0.09
 71
     0
 72
     0
 73
     1
 74
     1
 75
     0
 76
     0
 77
     0
 78
     0
170
     0
171
     2
172
     0
173
     0
174
     0
175
     0
176
     0
177
     0
178
     0
  0
ENDTAB
  0
ENDSEC
  0
SECTION
  2
BLOCKS
  0
BLOCK
  8
0
  2
$MODEL_SPACE
 70
     0
 10
0.0
 20
0.0
 30
0.0
  3
$MODEL_SPACE
  1

  0
ENDBLK
  5
2B
  8
0
  0
BLOCK
 67
     1
  8
0
  2
$PAPER_SPACE
 70
     0
 10
0.0
 20
0.0
 30
0.0
  3
$PAPER_SPACE
  1

  0
ENDBLK
  5
29
 67
     1
  8
0
  0
BLOCK
  8
0
  2
COPYRIGHT99
 70
     0
 10
0.0
 20
0.0
 30
0.0
  3
COPYRIGHT99
  1

  0
TEXT
  8
0
  40
0.25
  5
2C4
  72
0
  71
0
 10
0.0258730
 20
-0.00195500
 30
0.000000
  1
COPYRIGHT У 1999 by THORLABS INC.
  0
ENDBLK
  5
24A
  8
0
  0
ENDSEC
  0
SECTION
  2
ENTITIES
  0
TRACE
  5
2E
  8
BORDER
 10
-0.001475
 20
0.1347
 30
0.0
 11
0.030875
 21
0.1347
 31
0.0
 12
-0.001475
 22
7.560485
 32
0.0
 13
0.030875
 23
7.528135
 33
0.0
  0
TRACE
  5
2F
  8
BORDER
 10
-0.001475
 20
7.560485
 30
0.0
 11
0.030875
 21
7.528135
 31
0.0
 12
9.994675
 22
7.560485
 32
0.0
 13
9.962325
 23
7.528135
 33
0.0
  0
TRACE
  5
30
  8
BORDER
 10
9.994675
 20
7.560485
 30
0.0
 11
9.962325
 21
7.528135
 31
0.0
 12
9.994675
 22
0.1347
 32
0.0
 13
9.962325
 23
0.1347
 33
0.0
  0
TRACE
  5
31
  8
BORDER
 10
0.0147
 20
0.150875
 30
0.0
 11
0.0147
 21
0.118525
 31
0.0
 12
9.9785
 22
0.150875
 32
0.0
 13
9.9785
 23
0.118525
 33
0.0
  0
TEXT
  5
32
  8
BORDER
 10
7.752846
 20
0.96232
 30
0.11646
 40
0.04529
  1
TOL: X.XXX=+/-0.005 X.XX=+/-0.010 ANGULAR +/-30'
  0
TRACE
  5
34
  8
BORDER
 10
7.697851
 20
1.0529
 30
0.11646
 11
7.697851
 21
1.03996
 31
0.11646
 12
9.959116
 22
1.0529
 32
0.11646
 13
9.959116
 23
1.03996
 33
0.11646
 39
0.11646
  0
LINE
  5
35
  8
BORDER
 39
0.11646
 10
7.694616
 20
1.04643
 30
0.11646
 11
9.959116
 21
1.04643
 31
0.11646
  0
TRACE
  5
36
  8
BORDER
 10
9.959116
 20
1.23406
 30
0.11646
 11
9.959116
 21
1.247
 31
0.11646
 12
7.697851
 22
1.23406
 32
0.11646
 13
7.697851
 23
1.247
 33
0.11646
 39
0.11646
  0
TRACE
  5
37
  8
BORDER
 10
9.072726
 20
0.9235
 30
0.11646
 11
9.072726
 21
0.93644
 31
0.11646
 12
7.694616
 22
0.9235
 32
0.11646
 13
7.694616
 23
0.93644
 33
0.11646
 39
0.11646
  0
TRACE
  5
38
  8
BORDER
 10
9.066256
 20
0.93644
 30
0.11646
 11
9.079196
 21
0.9235
 31
0.11646
 12
9.959116
 22
0.93644
 32
0.11646
 13
9.959116
 23
0.9235
 33
0.11646
 39
0.11646
  0
TRACE
  5
39
  8
BORDER
 10
9.066256
 20
0.15357
 30
0.11646
 11
9.079196
 21
0.15357
 31
0.11646
 12
9.066256
 22
0.93644
 32
0.11646
 13
9.079196
 23
0.9235
 33
0.11646
 39
0.11646
  0
TEXT
  5
3A
  8
BORDER
 10
9.101841
 20
0.8588
 30
0.11646
 40
0.04529
  1
WHERE USED
  0
LINE
  5
3B
  8
BORDER
 39
0.11646
 10
8.649758
 20
0.34767
 30
0.11646
 11
8.649758
 21
0.54177
 31
0.11646
  0
TEXT
  5
3C
  8
BORDER
 10
8.671613
 20
0.667935
 30
0.11646
 40
0.04
  1
APPROVED
  0
TEXT
  5
3D
  8
BORDER
 10
8.261045
 20
0.667935
 30
0.11646
 40
0.04
  1
ENGR.
  0
LINE
  5
3E
  8
BORDER
 39
0.11646
 10
8.246152
 20
0.118295
 30
0.0
 11
8.246152
 21
0.7337
 31
0.0
  0
LINE
  5
3F
  8
BORDER
 39
0.11646
 10
8.649758
 20
0.54177
 30
0.11646
 11
8.649758
 21
0.73587
 31
0.11646
  0
LINE
  5
40
  8
BORDER
 10
7.694616
 20
0.34767
 30
0.11646
 11
9.072813
 21
0.34767
 31
0.11646
  0
LINE
  5
41
  8
BORDER
 10
7.694616
 20
0.54177
 30
0.11646
 11
9.072813
 21
0.54177
 31
0.11646
  0
LINE
  5
42
  8
BORDER
 10
7.694616
 20
0.73587
 30
0.11646
 11
9.072813
 21
0.73587
 31
0.11646
  0
LINE
  5
43
  8
BORDER
 10
7.694616
 20
0.92997
 30
0.11646
 11
9.959116
 21
0.92997
 31
0.11646
  0
TEXT
  5
44
  8
BORDER
 10
9.175095
 20
1.384271
 30
0.23292
 40
0.072788
  1
PO BOX 366
  0
TEXT
  5
45
  8
BORDER
 10
9.175095
 20
1.262959
 30
0.23292
 40
0.072788
  1
NEWTON NJ
  0
LINE
  5
46
  8
BORDER
 10
8.612835
 20
1.33423
 30
0.23292
 11
8.58644
 21
1.419913
 31
0.23292
  0
LINE
  5
47
  8
BORDER
 10
8.560044
 20
1.33423
 30
0.23292
 11
8.612835
 21
1.33423
 31
0.23292
  0
LINE
  5
48
  8
BORDER
 10
8.58644
 20
1.419913
 30
0.23292
 11
8.560044
 21
1.33423
 31
0.23292
  0
LINE
  5
49
  8
BORDER
 10
8.7517
 20
1.348787
 30
0.23292
 11
8.703335
 21
1.348787
 31
0.23292
  0
ARC
  5
4A
  8
BORDER
 10
8.7517
 20
1.323331
 30
0.23292
 40
0.025456
 50
313.227508
 51
90.0
  0
ARC
  5
4B
  8
BORDER
 10
8.747007
 20
1.328323
 30
0.23292
 40
0.032307
 50
270.0
 51
313.227508
  0
LINE
  5
4C
  8
BORDER
 10
8.703335
 20
1.296016
 30
0.23292
 11
8.747007
 21
1.296016
 31
0.23292
  0
LINE
  5
4D
  8
BORDER
 10
8.703335
 20
1.348787
 30
0.23292
 11
8.703335
 21
1.296016
 31
0.23292
  0
ARC
  5
4E
  8
BORDER
 10
8.749348
 20
1.399738
 30
0.23292
 40
0.022746
 50
270.0
 51
90.000005
  0
LINE
  5
4F
  8
BORDER
 10
8.703335
 20
1.376992
 30
0.23292
 11
8.749348
 21
1.376992
 31
0.23292
  0
LINE
  5
50
  8
BORDER
 10
8.703335
 20
1.422485
 30
0.23292
 11
8.703335
 21
1.376992
 31
0.23292
  0
LINE
  5
51
  8
BORDER
 10
8.749348
 20
1.422485
 30
0.23292
 11
8.703335
 21
1.422485
 31
0.23292
  0
SOLID
  5
52
  8
BORDER
 10
8.987043
 20
1.263189
 30
0.23292
 11
8.987043
 21
1.281165
 31
0.23292
 12
9.072641
 22
1.263189
 32
0.23292
 13
9.072641
 23
1.281165
 33
0.23292
  0
SOLID
  5
53
  8
BORDER
 10
9.072641
 20
1.296144
 30
0.23292
 11
8.987043
 21
1.296144
 31
0.23292
 12
9.072641
 22
1.31412
 32
0.23292
 13
8.987043
 23
1.31412
 33
0.23292
  0
SOLID
  5
54
  8
BORDER
 10
8.987043
 20
1.368903
 30
0.23292
 11
9.072641
 21
1.368903
 31
0.23292
 12
8.987043
 22
1.350927
 32
0.23292
 13
9.072641
 23
1.350927
 33
0.23292
  0
SOLID
  5
55
  8
BORDER
 10
8.987043
 20
1.314548
 30
0.23292
 11
9.072639
 21
1.368442
 31
0.23292
 12
8.98705
 22
1.297394
 32
0.23292
 13
9.072641
 23
1.350499
 33
0.23292
  0
POLYLINE
  5
56
  8
BORDER
 66
     1
 10
0.0
 20
0.0
 30
0.23292
 40
0.003424
 41
0.003424
  0
VERTEX
  5
259
  8
BORDER
 10
9.013143
 20
1.438552
 30
0.23292
 42
0.342627
  0
VERTEX
  5
25A
  8
BORDER
 10
8.996635
 20
1.420997
 30
0.23292
 42
0.294281
  0
VERTEX
  5
25B
  8
BORDER
 10
9.008399
 20
1.398285
 30
0.23292
 42
0.273538
  0
VERTEX
  5
25C
  8
BORDER
 10
9.051213
 20
1.398864
 30
0.23292
 42
0.20817
  0
VERTEX
  5
25D
  8
BORDER
 10
9.062095
 20
1.414341
 30
0.23292
 42
0.418985
  0
VERTEX
  5
25E
  8
BORDER
 10
9.045318
 20
1.439332
 30
0.23292
 42
0.418985
  0
SEQEND
  5
25F
  8
BORDER
  0
POLYLINE
  5
5E
  8
BORDER
 66
     1
 10
0.0
 20
0.0
 30
0.23292
 40
0.003424
 41
0.003424
  0
VERTEX
  5
260
  8
BORDER
 10
8.988365
 20
1.431152
 30
0.23292
 42
0.398621
  0
VERTEX
  5
261
  8
BORDER
 10
9.011235
 20
1.382333
 30
0.23292
 42
0.398621
  0
SEQEND
  5
262
  8
BORDER
  0
POLYLINE
  5
62
  8
BORDER
 66
     1
 10
0.0
 20
0.0
 30
0.23292
 40
0.003424
 41
0.003424
  0
VERTEX
  5
263
  8
BORDER
 10
9.011235
 20
1.382333
 30
0.23292
 42
0.270661
  0
VERTEX
  5
264
  8
BORDER
 10
9.059848
 20
1.389909
 30
0.23292
 42
0.270661
  0
SEQEND
  5
265
  8
BORDER
  0
POLYLINE
  5
66
  8
BORDER
 66
     1
 10
0.0
 20
0.0
 30
0.23292
 40
0.003424
 41
0.003424
  0
VERTEX
  5
266
  8
BORDER
 10
9.059848
 20
1.389909
 30
0.23292
 42
0.179001
  0
VERTEX
  5
267
  8
BORDER
 10
9.072468
 20
1.411287
 30
0.23292
 42
0.179001
  0
SEQEND
  5
268
  8
BORDER
  0
POLYLINE
  5
6A
  8
BORDER
 66
     1
 10
0.0
 20
0.0
 30
0.23292
 40
0.003424
 41
0.003424
  0
VERTEX
  5
269
  8
BORDER
 10
9.072468
 20
1.411287
 30
0.23292
 42
0.152191
  0
VERTEX
  5
26A
  8
BORDER
 10
9.069486
 20
1.435411
 30
0.23292
 42
0.152191
  0
SEQEND
  5
26B
  8
BORDER
  0
SOLID
  5
6E
  8
BORDER
 10
9.007446
 20
1.437009
 30
0.23292
 11
8.998818
 21
1.446416
 31
0.23292
 12
8.996779
 22
1.425565
 32
0.23292
 13
8.986895
 23
1.429641
 33
0.23292
  0
SOLID
  5
6F
  8
BORDER
 10
8.996779
 20
1.425565
 30
0.23292
 11
8.986895
 21
1.429641
 31
0.23292
 12
8.998504
 22
1.407379
 32
0.23292
 13
8.98815
 23
1.403146
 33
0.23292
  0
SOLID
  5
70
  8
BORDER
 10
8.998504
 20
1.407379
 30
0.23292
 11
8.98815
 21
1.403146
 31
0.23292
 12
9.014819
 22
1.394367
 32
0.23292
 13
9.006034
 23
1.383864
 33
0.23292
  0
SOLID
  5
71
  8
BORDER
 10
9.014819
 20
1.394367
 30
0.23292
 11
9.006034
 21
1.383864
 31
0.23292
 12
9.03239
 22
1.392956
 32
0.23292
 13
9.033331
 23
1.378377
 33
0.23292
  0
SOLID
  5
72
  8
BORDER
 10
9.03239
 20
1.392956
 30
0.23292
 11
9.033331
 21
1.378377
 31
0.23292
 12
9.055156
 22
1.400197
 32
0.23292
 13
9.061569
 23
1.389631
 33
0.23292
  0
SOLID
  5
73
  8
BORDER
 10
9.055156
 20
1.400197
 30
0.23292
 11
9.061569
 21
1.389631
 31
0.23292
 12
9.062609
 22
1.416998
 32
0.23292
 13
9.073701
 23
1.411455
 33
0.23292
  0
SOLID
  5
74
  8
BORDER
 10
9.062609
 20
1.416998
 30
0.23292
 11
9.073701
 21
1.411455
 31
0.23292
 12
9.058102
 22
1.431894
 32
0.23292
 13
9.068675
 23
1.438995
 33
0.23292
  0
SOLID
  5
75
  8
BORDER
 10
9.058102
 20
1.431894
 30
0.23292
 11
9.068675
 21
1.438995
 31
0.23292
 12
9.047353
 22
1.438225
 32
0.23292
 13
9.049173
 23
1.453945
 33
0.23292
  0
POLYLINE
  5
76
  8
BORDER
 66
     1
 10
0.0
 20
0.0
 30
0.23292
 40
0.003424
 41
0.003424
  0
VERTEX
  5
26C
  8
BORDER
 10
9.069486
 20
1.435411
 30
0.23292
 42
0.261966
  0
VERTEX
  5
26D
  8
BORDER
 10
9.045238
 20
1.453214
 30
0.23292
 42
0.265647
  0
SEQEND
  5
26E
  8
BORDER
  0
POLYLINE
  5
7A
  8
BORDER
 66
     1
 10
0.0
 20
0.0
 30
0.23292
 40
0.003424
 41
0.003424
  0
VERTEX
  5
26F
  8
BORDER
 10
9.013093
 20
1.451837
 30
0.23292
 42
0.284121
  0
VERTEX
  5
270
  8
BORDER
 10
8.988365
 20
1.431152
 30
0.23292
 42
0.288845
  0
SEQEND
  5
271
  8
BORDER
  0
SOLID
  5
7E
  8
BORDER
 10
9.007446
 20
1.437009
 30
0.23292
 11
8.998818
 21
1.446416
 31
0.23292
 12
9.011059
 22
1.437935
 32
0.23292
 13
9.009946
 23
1.452752
 33
0.23292
  0
SOLID
  5
7F
  8
BORDER
 10
9.011059
 20
1.437935
 30
0.23292
 11
9.009946
 21
1.452752
 31
0.23292
 12
9.013409
 22
1.436861
 32
0.23292
 13
9.013409
 23
1.453607
 33
0.23292
  0
SOLID
  5
80
  8
BORDER
 10
9.047353
 20
1.438225
 30
0.23292
 11
9.049173
 21
1.453945
 31
0.23292
 12
9.045001
 22
1.43765
 32
0.23292
 13
9.045001
 23
1.454964
 33
0.23292
  0
SOLID
  5
81
  8
BORDER
 10
8.236678
 20
1.267811
 30
0.23292
 11
8.236678
 21
1.44978
 31
0.23292
 12
8.273852
 22
1.267811
 32
0.23292
 13
8.273852
 23
1.445815
 33
0.23292
  0
POLYLINE
  5
82
  8
BORDER
 66
     1
 10
0.0
 20
0.0
 30
0.23292
 40
0.007279
 41
0.007279
  0
VERTEX
  5
272
  8
BORDER
 10
8.342575
 20
1.358154
 30
0.23292
 42
0.939934
  0
VERTEX
  5
273
  8
BORDER
 10
8.337121
 20
1.446141
 30
0.23292
 42
0.939934
  0
SEQEND
  5
274
  8
BORDER
  0
POLYLINE
  5
86
  8
BORDER
 66
     1
 10
0.0
 20
0.0
 30
0.23292
 40
0.007279
 41
0.007279
  0
VERTEX
  5
275
  8
BORDER
 10
8.320356
 20
1.364327
 30
0.23292
 42
1.0
  0
VERTEX
  5
276
  8
BORDER
 10
8.320356
 20
1.425678
 30
0.23292
 42
1.0
  0
SEQEND
  5
277
  8
BORDER
  0
SOLID
  5
8A
  8
BORDER
 10
8.273852
 20
1.422039
 30
0.23292
 11
8.273852
 21
1.445815
 31
0.23292
 12
8.320356
 22
1.422039
 32
0.23292
 13
8.337121
 23
1.44978
 33
0.23292
  0
SOLID
  5
8B
  8
BORDER
 10
8.273852
 20
1.367966
 30
0.23292
 11
8.273852
 21
1.340536
 31
0.23292
 12
8.320356
 22
1.367966
 32
0.23292
 13
8.309295
 23
1.340536
 33
0.23292
  0
POLYLINE
  5
8C
  8
BORDER
 66
     1
 10
0.0
 20
0.0
 30
0.23292
 40
0.007279
 41
0.007279
  0
VERTEX
  5
278
  8
BORDER
 10
8.373635
 20
1.319995
 30
0.23292
 42
0.358135
  0
VERTEX
  5
279
  8
BORDER
 10
8.342672
 20
1.35092
 30
0.23292
 42
0.358135
  0
SEQEND
  5
27A
  8
BORDER
  0
POLYLINE
  5
90
  8
BORDER
 66
     1
 10
0.0
 20
0.0
 30
0.23292
 40
0.007279
 41
0.007279
  0
VERTEX
  5
27B
  8
BORDER
 10
8.346308
 20
1.310197
 30
0.23292
 42
0.389398
  0
VERTEX
  5
27C
  8
BORDER
 10
8.309295
 20
1.344175
 30
0.23292
 42
0.389398
  0
SEQEND
  5
27D
  8
BORDER
  0
POLYLINE
  5
94
  8
BORDER
 66
     1
 10
0.0
 20
0.0
 30
0.23292
 40
0.007279
 41
0.007279
  0
VERTEX
  5
27E
  8
BORDER
 10
8.349116
 20
1.277412
 30
0.23292
 42
0.114836
  0
VERTEX
  5
27F
  8
BORDER
 10
8.351625
 20
1.269691
 30
0.23292
 42
0.114836
  0
SEQEND
  5
280
  8
BORDER
  0
SOLID
  5
98
  8
BORDER
 10
8.342681
 20
1.309887
 30
0.23292
 11
8.34549
 21
1.277101
 31
0.23292
 12
8.377257
 22
1.320352
 32
0.23292
 13
8.381246
 23
1.279869
 33
0.23292
  0
SOLID
  5
99
  8
BORDER
 10
8.342681
 20
1.309887
 30
0.23292
 11
8.377257
 21
1.320352
 31
0.23292
 12
8.343411
 22
1.320749
 32
0.23292
 13
8.372933
 23
1.331089
 33
0.23292
  0
SOLID
  5
9A
  8
BORDER
 10
8.343411
 20
1.320749
 30
0.23292
 11
8.372933
 21
1.331089
 31
0.23292
 12
8.335046
 22
1.332074
 32
0.23292
 13
8.354728
 23
1.34586
 33
0.23292
  0
SOLID
  5
9B
  8
BORDER
 10
8.335046
 20
1.332074
 30
0.23292
 11
8.354728
 21
1.34586
 31
0.23292
 12
8.325172
 22
1.341901
 32
0.23292
 13
8.343024
 23
1.354542
 33
0.23292
  0
SOLID
  5
9C
  8
BORDER
 10
8.325172
 20
1.341901
 30
0.23292
 11
8.343024
 21
1.354542
 31
0.23292
 12
8.309295
 22
1.340536
 32
0.23292
 13
8.320356
 23
1.367966
 33
0.23292
  0
SOLID
  5
9D
  8
BORDER
 10
8.339491
 20
1.367323
 30
0.23292
 11
8.353397
 21
1.36084
 31
0.23292
 12
8.352174
 22
1.395774
 32
0.23292
 13
8.38043
 23
1.386726
 33
0.23292
  0
SOLID
  5
9E
  8
BORDER
 10
8.352174
 20
1.395774
 30
0.23292
 11
8.38043
 21
1.386726
 31
0.23292
 12
8.348406
 22
1.410854
 32
0.23292
 13
8.376662
 23
1.425557
 33
0.23292
  0
SOLID
  5
9F
  8
BORDER
 10
8.348406
 20
1.410854
 30
0.23292
 11
8.376662
 21
1.425557
 31
0.23292
 12
8.335973
 22
1.424049
 32
0.23292
 13
8.348783
 23
1.444784
 33
0.23292
  0
SOLID
  5
A0
  8
BORDER
 10
8.335973
 20
1.424049
 30
0.23292
 11
8.348783
 21
1.444784
 31
0.23292
 12
8.320356
 22
1.422039
 32
0.23292
 13
8.337121
 23
1.44978
 33
0.23292
  0
SOLID
  5
A1
  8
BORDER
 10
8.339491
 20
1.367323
 30
0.23292
 11
8.353397
 21
1.36084
 31
0.23292
 12
8.320356
 22
1.367966
 32
0.23292
 13
8.343024
 23
1.354542
 33
0.23292
  0
POLYLINE
  5
A2
  8
BORDER
 66
     1
 10
0.0
 20
0.0
 30
0.23292
 40
0.007279
 41
0.007279
  0
VERTEX
  5
281
  8
BORDER
 10
8.337121
 20
1.446141
 30
0.23292
  0
VERTEX
  5
282
  8
BORDER
 10
8.236678
 20
1.446141
 30
0.23292
  0
SEQEND
  5
283
  8
BORDER
  0
POLYLINE
  5
A6
  8
BORDER
 66
     1
 10
0.0
 20
0.0
 30
0.23292
 40
0.007279
 41
0.007279
  0
VERTEX
  5
284
  8
BORDER
 10
8.377624
 20
1.279512
 30
0.23292
 42
0.095067
  0
VERTEX
  5
285
  8
BORDER
 10
8.380531
 20
1.269692
 30
0.23292
 42
0.140492
  0
SEQEND
  5
286
  8
BORDER
  0
SOLID
  5
AA
  8
BORDER
 10
8.348509
 20
1.267811
 30
0.23292
 11
8.386025
 21
1.267811
 31
0.23292
 12
8.34679
 22
1.272871
 32
0.23292
 13
8.380544
 23
1.276419
 33
0.23292
  0
SOLID
  5
AB
  8
BORDER
 10
8.34679
 20
1.272871
 30
0.23292
 11
8.380544
 21
1.276419
 31
0.23292
 12
8.34549
 22
1.277101
 32
0.23292
 13
8.381246
 23
1.279869
 33
0.23292
  0
POLYLINE
  5
AC
  8
BORDER
 66
     1
 10
0.0
 20
0.0
 30
0.23292
 70
     1
 40
0.007279
 41
0.007279
  0
VERTEX
  5
287
  8
BORDER
 10
8.105436
 20
1.399432
 30
0.23292
 42
0.228527
  0
VERTEX
  5
288
  8
BORDER
 10
8.106286
 20
1.316811
 30
0.23292
 42
0.623004
  0
VERTEX
  5
289
  8
BORDER
 10
8.193827
 20
1.317087
 30
0.23292
 42
0.229006
  0
VERTEX
  5
28A
  8
BORDER
 10
8.194081
 20
1.399792
 30
0.23292
 42
0.632312
  0
SEQEND
  5
28B
  8
BORDER
  0
POLYLINE
  5
B2
  8
BORDER
 66
     1
 10
0.0
 20
0.0
 30
0.23292
 40
0.007279
 41
0.007279
  0
VERTEX
  5
28C
  8
BORDER
 10
8.228274
 20
1.393827
 30
0.23292
 42
0.741471
  0
VERTEX
  5
28D
  8
BORDER
 10
8.071717
 20
1.392903
 30
0.23292
 42
0.741471
  0
SEQEND
  5
28E
  8
BORDER
  0
POLYLINE
  5
B6
  8
BORDER
 66
     1
 10
0.0
 20
0.0
 30
0.23292
 40
0.007279
 41
0.007279
  0
VERTEX
  5
28F
  8
BORDER
 10
8.22963
 20
1.329631
 30
0.23292
 42
0.140695
  0
VERTEX
  5
290
  8
BORDER
 10
8.228274
 20
1.393827
 30
0.23292
 42
0.140695
  0
SEQEND
  5
291
  8
BORDER
  0
POLYLINE
  5
BA
  8
BORDER
 66
     1
 10
0.0
 20
0.0
 30
0.23292
 40
0.007279
 41
0.007279
  0
VERTEX
  5
292
  8
BORDER
 10
8.071413
 20
1.327965
 30
0.23292
 42
0.761639
  0
VERTEX
  5
293
  8
BORDER
 10
8.22963
 20
1.329631
 30
0.23292
 42
0.761639
  0
SEQEND
  5
294
  8
BORDER
  0
POLYLINE
  5
BE
  8
BORDER
 66
     1
 10
0.0
 20
0.0
 30
0.23292
 40
0.007279
 41
0.007279
  0
VERTEX
  5
295
  8
BORDER
 10
8.071717
 20
1.392903
 30
0.23292
 42
0.143054
  0
VERTEX
  5
296
  8
BORDER
 10
8.071413
 20
1.327965
 30
0.23292
 42
0.143054
  0
SEQEND
  5
297
  8
BORDER
  0
SOLID
  5
C2
  8
BORDER
 10
8.149609
 20
1.453472
 30
0.23292
 11
8.14884
 21
1.42732
 31
0.23292
 12
8.101182
 22
1.43655
 32
0.23292
 13
8.115018
 23
1.415782
 33
0.23292
  0
SOLID
  5
C3
  8
BORDER
 10
8.101182
 20
1.43655
 30
0.23292
 11
8.115018
 21
1.415782
 31
0.23292
 12
8.076584
 22
1.408859
 32
0.23292
 13
8.102719
 23
1.390398
 33
0.23292
  0
SOLID
  5
C4
  8
BORDER
 10
8.076584
 20
1.408859
 30
0.23292
 11
8.102719
 21
1.390398
 31
0.23292
 12
8.06603
 22
1.358505
 32
0.23292
 13
8.095645
 23
1.35595
 33
0.23292
  0
SOLID
  5
C5
  8
BORDER
 10
8.06603
 20
1.358505
 30
0.23292
 11
8.095645
 21
1.35595
 31
0.23292
 12
8.079306
 22
1.306389
 32
0.23292
 13
8.105346
 23
1.316097
 33
0.23292
  0
SOLID
  5
C6
  8
BORDER
 10
8.079306
 20
1.306389
 30
0.23292
 11
8.105346
 21
1.316097
 31
0.23292
 12
8.117601
 22
1.273178
 32
0.23292
 13
8.130876
 23
1.292083
 33
0.23292
  0
SOLID
  5
C7
  8
BORDER
 10
8.117601
 20
1.273178
 30
0.23292
 11
8.130876
 21
1.292083
 31
0.23292
 12
8.150279
 22
1.267047
 32
0.23292
 13
8.150279
 23
1.290039
 33
0.23292
  0
SOLID
  5
C8
  8
BORDER
 10
8.150279
 20
1.267047
 30
0.23292
 11
8.150279
 21
1.290039
 31
0.23292
 12
8.197764
 22
1.283397
 32
0.23292
 13
8.184999
 23
1.300769
 33
0.23292
  0
SOLID
  5
C9
  8
BORDER
 10
8.197764
 20
1.283397
 30
0.23292
 11
8.184999
 21
1.300769
 31
0.23292
 12
8.223294
 22
1.31201
 32
0.23292
 13
8.201849
 23
1.334491
 33
0.23292
  0
SOLID
  5
CA
  8
BORDER
 10
8.223294
 20
1.31201
 30
0.23292
 11
8.201849
 21
1.334491
 31
0.23292
 12
8.234527
 22
1.366169
 32
0.23292
 13
8.20287
 23
1.369234
 33
0.23292
  0
SOLID
  5
CB
  8
BORDER
 10
8.234527
 20
1.366169
 30
0.23292
 11
8.20287
 21
1.369234
 31
0.23292
 12
8.219209
 22
1.417773
 32
0.23292
 13
8.192148
 23
1.405
 33
0.23292
  0
SOLID
  5
CC
  8
BORDER
 10
8.219209
 20
1.417773
 30
0.23292
 11
8.192148
 21
1.405
 31
0.23292
 12
8.182957
 22
1.446386
 32
0.23292
 13
8.173766
 23
1.420328
 33
0.23292
  0
SOLID
  5
CD
  8
BORDER
 10
8.182957
 20
1.446386
 30
0.23292
 11
8.173766
 21
1.420328
 31
0.23292
 12
8.149609
 22
1.453472
 32
0.23292
 13
8.14884
 23
1.42732
 33
0.23292
  0
SOLID
  5
CE
  8
BORDER
 10
7.91543
 20
1.44978
 30
0.23292
 11
7.951824
 21
1.44978
 31
0.23292
 12
7.91543
 22
1.267811
 32
0.23292
 13
7.951824
 23
1.267811
 33
0.23292
  0
SOLID
  5
CF
  8
BORDER
 10
8.027341
 20
1.44978
 30
0.23292
 11
8.063734
 21
1.44978
 31
0.23292
 12
8.027341
 22
1.267811
 32
0.23292
 13
8.063734
 23
1.267811
 33
0.23292
  0
SOLID
  5
D0
  8
BORDER
 10
8.027341
 20
1.378812
 30
0.23292
 11
7.951824
 21
1.378812
 31
0.23292
 12
8.027341
 22
1.347877
 32
0.23292
 13
7.951824
 23
1.347877
 33
0.23292
  0
SOLID
  5
D1
  8
BORDER
 10
7.762576
 20
1.44978
 30
0.23292
 11
7.91543
 21
1.44978
 31
0.23292
 12
7.762576
 22
1.419755
 32
0.23292
 13
7.91543
 23
1.419755
 33
0.23292
  0
POLYLINE
  5
D2
  8
BORDER
 66
     1
 10
0.0
 20
0.0
 30
0.23292
  0
VERTEX
  5
298
  8
BORDER
 10
8.621244
 20
1.306934
 30
0.23292
  0
VERTEX
  5
299
  8
BORDER
 10
8.551635
 20
1.306934
 30
0.23292
  0
VERTEX
  5
29A
  8
BORDER
 10
8.539583
 20
1.267811
 30
0.23292
  0
VERTEX
  5
29B
  8
BORDER
 10
8.501369
 20
1.267811
 30
0.23292
  0
SEQEND
  5
29C
  8
BORDER
  0
LINE
  5
D8
  8
BORDER
 10
8.384909
 20
1.267811
 30
0.23292
 11
8.514107
 21
1.267811
 31
0.23292
  0
LINE
  5
D9
  8
BORDER
 10
8.512351
 20
1.298746
 30
0.23292
 11
8.423123
 21
1.298746
 31
0.23292
  0
LINE
  5
DA
  8
BORDER
 10
8.423123
 20
1.298746
 30
0.23292
 11
8.423123
 21
1.44978
 31
0.23292
  0
LINE
  5
DB
  8
BORDER
 10
8.423123
 20
1.44978
 30
0.23292
 11
8.384909
 21
1.44978
 31
0.23292
  0
LINE
  5
DC
  8
BORDER
 10
8.384909
 20
1.44978
 30
0.23292
 11
8.384909
 21
1.267811
 31
0.23292
  0
POLYLINE
  5
DD
  8
BORDER
 66
     1
 10
0.0
 20
0.0
 30
0.23292
  0
VERTEX
  5
29D
  8
BORDER
 10
8.512351
 20
1.298746
 30
0.23292
  0
VERTEX
  5
29E
  8
BORDER
 10
8.565968
 20
1.44978
 30
0.23292
  0
VERTEX
  5
29F
  8
BORDER
 10
8.606911
 20
1.44978
 30
0.23292
  0
VERTEX
  5
2A0
  8
BORDER
 10
8.666941
 20
1.280681
 30
0.23292
  0
SEQEND
  5
2A1
  8
BORDER
  0
POLYLINE
  5
E3
  8
BORDER
 66
     1
 10
0.0
 20
0.0
 30
0.23292
  0
VERTEX
  5
2A2
  8
BORDER
 10
8.67151
 20
1.267811
 30
0.23292
  0
VERTEX
  5
2A3
  8
BORDER
 10
8.633297
 20
1.267811
 30
0.23292
  0
VERTEX
  5
2A4
  8
BORDER
 10
8.621244
 20
1.306934
 30
0.23292
  0
SEQEND
  5
2A5
  8
BORDER
  0
ARC
  5
E8
  8
BORDER
 10
8.751957
 20
1.37495
 30
0.23292
 40
0.07483
 50
58.670206
 51
90.0
  0
LINE
  5
E9
  8
BORDER
 10
8.751957
 20
1.44978
 30
0.23292
 11
8.666941
 21
1.44978
 31
0.23292
  0
LINE
  5
EA
  8
BORDER
 10
8.666941
 20
1.44978
 30
0.23292
 11
8.666941
 21
1.280681
 31
0.23292
  0
LINE
  5
EB
  8
BORDER
 10
8.666941
 20
1.267811
 30
0.23292
 11
8.755196
 21
1.267811
 31
0.23292
  0
ARC
  5
EC
  8
BORDER
 10
8.755196
 20
1.344957
 30
0.23292
 40
0.077145
 50
270.0
 51
297.452648
  0
ARC
  5
ED
  8
BORDER
 10
8.769306
 20
1.317796
 30
0.23292
 40
0.046538
 50
297.452648
 51
341.332312
  0
ARC
  5
EE
  8
BORDER
 10
8.755307
 20
1.30527
 30
0.23292
 40
0.065323
 50
41.821431
 51
67.21117
  0
ARC
  5
EF
  8
BORDER
 10
8.748827
 20
1.432493
 30
0.23292
 40
0.074155
 50
295.378395
 51
313.157563
  0
ARC
  5
F0
  8
BORDER
 10
8.77579
 20
1.403737
 30
0.23292
 40
0.034735
 50
313.157563
 51
358.653261
  0
ARC
  5
F1
  8
BORDER
 10
8.76957
 20
1.403884
 30
0.23292
 40
0.040957
 50
358.653261
 51
58.670206
  0
POLYLINE
  5
F2
  8
BORDER
 66
     1
 10
0.0
 20
0.0
 30
0.23292
  0
VERTEX
  5
2A6
  8
BORDER
 10
8.865634
 20
1.38198
 30
0.23292
 42
0.001957
  0
VERTEX
  5
2A7
  8
BORDER
 10
8.917744
 20
1.371364
 30
0.23292
 42
-0.213696
  0
VERTEX
  5
2A8
  8
BORDER
 10
8.953185
 20
1.346593
 30
0.23292
 42
-0.207559
  0
VERTEX
  5
2A9
  8
BORDER
 10
8.958086
 20
1.309226
 30
0.23292
 42
-0.231198
  0
VERTEX
  5
2AA
  8
BORDER
 10
8.923613
 20
1.270961
 30
0.23292
 42
-0.176336
  0
VERTEX
  5
2AB
  8
BORDER
 10
8.851658
 20
1.268513
 30
0.23292
 42
-0.211591
  0
VERTEX
  5
2AC
  8
BORDER
 10
8.813396
 20
1.3029
 30
0.23292
  0
SEQEND
  5
2AD
  8
BORDER
  0
POLYLINE
  5
FB
  8
BORDER
 66
     1
 10
0.0
 20
0.0
 30
0.23292
  0
VERTEX
  5
2AE
  8
BORDER
 10
8.815607
 20
1.322497
 30
0.23292
  0
VERTEX
  5
2AF
  8
BORDER
 10
8.844784
 20
1.322497
 30
0.23292
 42
0.302044
  0
VERTEX
  5
2B0
  8
BORDER
 10
8.863444
 20
1.295007
 30
0.23292
 42
0.26537
  0
VERTEX
  5
2B1
  8
BORDER
 10
8.913473
 20
1.301597
 30
0.23292
 42
0.635606
  0
VERTEX
  5
2B2
  8
BORDER
 10
8.905398
 20
1.339234
 30
0.23292
 42
-0.000944
  0
VERTEX
  5
2B3
  8
BORDER
 10
8.84575
 20
1.353135
 30
0.23292
 42
-0.344245
  0
VERTEX
  5
2B4
  8
BORDER
 10
8.810553
 20
1.39694
 30
0.23292
 42
-0.322222
  0
VERTEX
  5
2B5
  8
BORDER
 10
8.84665
 20
1.448627
 30
0.23292
 42
-0.141736
  0
VERTEX
  5
2B6
  8
BORDER
 10
8.908353
 20
1.452094
 30
0.23292
 42
-0.333774
  0
VERTEX
  5
2B7
  8
BORDER
 10
8.952626
 20
1.39964
 30
0.23292
  0
VERTEX
  5
2B8
  8
BORDER
 10
8.916644
 20
1.39964
 30
0.23292
 42
0.301979
  0
VERTEX
  5
2B9
  8
BORDER
 10
8.899455
 20
1.423529
 30
0.23292
 42
0.197288
  0
VERTEX
  5
2BA
  8
BORDER
 10
8.861296
 20
1.422419
 30
0.23292
 42
0.728374
  0
VERTEX
  5
2BB
  8
BORDER
 10
8.865634
 20
1.38198
 30
0.23292
 42
0.001957
  0
SEQEND
  5
2BC
  8
BORDER
  0
ARC
  5
10B
  8
BORDER
 10
8.769306
 20
1.317796
 30
0.23292
 40
0.046538
 50
5.797667
 51
41.821431
  0
SOLID
  5
10C
  8
BORDER
 10
7.820806
 20
1.267811
 30
0.23292
 11
7.8572
 21
1.267811
 31
0.23292
 12
7.820806
 22
1.419755
 32
0.23292
 13
7.8572
 23
1.419755
 33
0.23292
  0
TEXT
  5
10D
  8
BORDER
 10
8.822083
 20
0.376785
 30
0.11646
 40
0.04529
  1
OF
  0
TEXT
  5
10E
  8
BORDER
 10
7.756081
 20
0.47707
 30
0.11646
 40
0.04
  1
DATE
  0
TEXT
  5
10F
  8
BORDER
 10
7.752846
 20
0.8588
 30
0.11646
 40
0.04529
  1
MATERIAL
  0
TRACE
  5
110
  8
BORDER
 10
7.710791
 20
1.483155
 30
0.11646
 11
7.678441
 21
1.515505
 31
0.11646
 12
7.710791
 22
0.15357
 32
0.11646
 13
7.678441
 23
0.15357
 33
0.11646
  0
TRACE
  5
111
  8
BORDER
 10
9.959116
 20
1.483155
 30
0.11646
 11
9.959116
 21
1.515505
 31
0.11646
 12
7.710791
 22
1.483155
 32
0.11646
 13
7.678441
 23
1.515505
 33
0.11646
  0
TEXT
  5
112
  8
BORDER
 10
8.676044
 20
0.474
 30
0.11646
 40
0.04
  1
SHEET
  0
TEXT
  5
113
  8
BORDER
 10
8.262505
 20
0.473835
 30
0.11646
 40
0.04
  1
REV
  0
TEXT
  5
114
  8
BORDER
 10
7.756081
 20
0.28297
 30
0.11646
 40
0.04529
  1
DWG NO.
  0
TEXT
  5
115
  8
BORDER
 10
7.752846
 20
0.667935
 30
0.11646
 40
0.04
  1
DRAWN
  0
TEXT
  5
116
  8
BORDER
 10
7.752846
 20
1.172595
 30
0.11646
 40
0.04529
  1
TITLE
  0
LINE
  5
117
  8
BORDER
 10
7.694616
 20
1.24053
 30
0.11646
 11
9.959116
 21
1.24053
 31
0.11646
  0
LINE
  5
118
  8
BORDER
 10
9.072726
 20
0.92997
 30
0.11646
 11
9.072726
 21
0.150335
 31
0.11646
  0
TEXT
  5
119
  8
BORDER
 10
8.469736
 20
0.475
 30
0.0
 40
0.04
  1
SIZE
 72
     1
 11
8.536403
 21
0.475
 31
0.0
  0
LINE
  5
11A
  8
BORDER
 39
0.18
 10
8.430474
 20
0.54177
 30
0.0
 11
8.430474
 21
0.34767
 31
0.0
  0
TEXT
  5
11B
  8
BORDER
 10
8.520137
 20
0.38
 30
0.0
 40
0.05
  1
A
 72
     1
 11
8.536804
 21
0.38
 31
0.0
  0
POLYLINE
  5
11C
  8
0
 66
     1
 10
0.0
 20
0.0
 30
0.0
 40
0.015
 41
0.015
  0
VERTEX
  5
2BD
  8
0
 10
0.0
 20
0.0
 30
0.0
  0
VERTEX
  5
2BE
  8
0
 10
0.0
 20
0.0
 30
0.0
  0
SEQEND
  5
2BF
  8
0
  0
TEXT
  5
144
  8
BORDER
 10
8.266085
 20
0.28297
 30
0.11646
 40
0.04529
  1
PART NO.
  0
TEXT
  5
145
  8
DIM1
 10
7.996058
 20
1.092096
 30
0.0
 40
0.08
  1
PIEZOELECTRIC ACTUATORS
  0
TEXT
  5
146
  8
DIM1
 10
7.886058
 20
0.762096
 30
0.0
 40
0.06
  1
SEE NOTES
  0
TEXT
  5
147
  8
DIM1
 10
7.836058
 20
0.567096
 30
0.0
 40
0.06
  1
TD
  0
TEXT
  5
148
  8
DIM1
 10
8.351058
 20
0.567096
 30
0.0
 40
0.06
  1
AC
  0
TEXT
  5
149
  8
DIM1
 10
7.756058
 20
0.372096
 30
0.0
 40
0.06
  1
06/01/99
  0
TEXT
  5
14A
  8
DIM1
 10
7.766058
 20
0.182096
 30
0.0
 40
0.06
  1
0820-E0W
  0
TEXT
  5
14B
  8
DIM1
 10
8.3348
 20
0.183525
 30
0.0
 40
0.06
  1
AE0505D16
  0
TEXT
  5
14C
  8
DIM1
 10
8.706058
 20
0.372096
 30
0.0
 40
0.06
  1
1
  0
TEXT
  5
14D
  8
DIM1
 10
8.951058
 20
0.372096
 30
0.0
 40
0.06
  1
1
  0
POLYLINE
  5
14E
  8
0
 66
     1
 10
0.0
 20
0.0
 30
0.0
 40
0.015
 41
0.015
  0
VERTEX
  5
2C0
  8
0
 10
0.0
 20
0.0
 30
0.0
  0
VERTEX
  5
2C1
  8
0
 10
0.0
 20
0.0
 30
0.0
  0
SEQEND
  5
2C2
  8
0
  0
TEXT
  5
176
  8
DIM1
 10
8.3
 20
0.37
 30
0.0
 40
0.08
  1
 
  0
LINE
  5
177
  8
SHEET1
 39
0.18
 10
3.5798
 20
5.503525
 30
0.0
 11
3.7178
 21
5.503525
 31
0.0
  0
LINE
  5
178
  8
SHEET1
 39
0.18
 10
3.7178
 20
5.503525
 30
0.0
 11
3.7178
 21
5.680525
 31
0.0
  0
LINE
  5
179
  8
SHEET1
 39
0.18
 10
3.5798
 20
5.503525
 30
0.0
 11
3.5798
 21
5.680525
 31
0.0
  0
LINE
  5
17A
  8
SHEET1
 39
0.18
 10
3.5798
 20
5.680525
 30
0.0
 11
3.7178
 21
5.680525
 31
0.0
  0
LINE
  5
17B
  8
SHEET1
 39
0.18
 10
2.7048
 20
5.503525
 30
0.0
 11
2.7048
 21
5.680525
 31
0.0
  0
LINE
  5
17C
  8
SHEET1
 39
0.18
 10
2.5078
 20
5.503525
 30
0.0
 11
2.5078
 21
5.680525
 31
0.0
  0
LINE
  5
17D
  8
SHEET1
 39
0.18
 10
2.7048
 20
5.503525
 30
0.0
 11
2.5078
 21
5.503525
 31
0.0
  0
LINE
  5
17E
  8
SHEET1
 39
0.18
 10
2.7048
 20
5.680525
 30
0.0
 11
2.5078
 21
5.680525
 31
0.0
  0
TRACE
  5
17F
  8
SHEET1
 10
1.9448
 20
5.753025
 30
0.0
 11
1.9448
 21
5.734025
 31
0.0
 12
2.565195
 22
5.753025
 32
0.0
 13
2.564405
 23
5.734025
 33
0.0
 39
0.18
  0
TRACE
  5
180
  8
SHEET1
 10
2.565195
 20
5.753025
 30
0.0
 11
2.564405
 21
5.734025
 31
0.0
 12
2.628474
 22
5.742752
 32
0.0
 13
2.621126
 23
5.724298
 33
0.0
 39
0.18
  0
TRACE
  5
181
  8
SHEET1
 10
2.628474
 20
5.742752
 30
0.0
 11
2.621126
 21
5.724298
 31
0.0
 12
2.657068
 22
5.724877
 32
0.0
 13
2.642532
 23
5.712173
 33
0.0
 39
0.18
  0
TRACE
  5
182
  8
SHEET1
 10
2.657068
 20
5.724877
 30
0.0
 11
2.642532
 21
5.712173
 31
0.0
 12
2.673483
 22
5.707518
 32
0.0
 13
2.656117
 23
5.699532
 33
0.0
 39
0.18
  0
TRACE
  5
183
  8
SHEET1
 10
2.673483
 20
5.707518
 30
0.0
 11
2.656117
 21
5.699532
 31
0.0
 12
2.6793
 22
5.690067
 32
0.0
 13
2.6603
 23
5.686983
 33
0.0
 39
0.18
  0
TRACE
  5
184
  8
SHEET1
 10
2.6793
 20
5.690067
 30
0.0
 11
2.6603
 21
5.686983
 31
0.0
 12
2.6793
 22
5.683525
 32
0.0
 13
2.6603
 23
5.683525
 33
0.0
 39
0.18
  0
TRACE
  5
185
  8
SHEET1
 10
2.6793
 20
5.683525
 30
0.0
 11
2.6603
 21
5.683525
 31
0.0
 12
2.6793
 22
5.680525
 32
0.0
 13
2.6603
 23
5.680525
 33
0.0
 39
0.18
  0
TRACE
  5
186
  8
SHEET1
 10
2.565195
 20
5.431025
 30
0.0
 11
2.564405
 21
5.450025
 31
0.0
 12
2.628474
 22
5.441298
 32
0.0
 13
2.621126
 23
5.459752
 33
0.0
 39
0.18
  0
TRACE
  5
187
  8
SHEET1
 10
2.628474
 20
5.441298
 30
0.0
 11
2.621126
 21
5.459752
 31
0.0
 12
2.657068
 22
5.459173
 32
0.0
 13
2.642532
 23
5.471877
 33
0.0
 39
0.18
  0
TRACE
  5
188
  8
SHEET1
 10
2.673483
 20
5.476532
 30
0.0
 11
2.656117
 21
5.484518
 31
0.0
 12
2.6793
 22
5.493983
 32
0.0
 13
2.6603
 23
5.497067
 33
0.0
 39
0.18
  0
TRACE
  5
189
  8
SHEET1
 10
2.657068
 20
5.459173
 30
0.0
 11
2.642532
 21
5.471877
 31
0.0
 12
2.673483
 22
5.476532
 32
0.0
 13
2.656117
 23
5.484518
 33
0.0
 39
0.18
  0
TRACE
  5
18A
  8
SHEET1
 10
1.9448
 20
5.431025
 30
0.0
 11
1.9448
 21
5.450025
 31
0.0
 12
2.565195
 22
5.431025
 32
0.0
 13
2.564405
 23
5.450025
 33
0.0
 39
0.18
  0
TRACE
  5
18B
  8
SHEET1
 10
2.6793
 20
5.500525
 30
0.0
 11
2.6603
 21
5.500525
 31
0.0
 12
2.6793
 22
5.503525
 32
0.0
 13
2.6603
 23
5.503525
 33
0.0
 39
0.18
  0
TRACE
  5
18C
  8
SHEET1
 10
2.6793
 20
5.493983
 30
0.0
 11
2.6603
 21
5.497067
 31
0.0
 12
2.6793
 22
5.500525
 32
0.0
 13
2.6603
 23
5.500525
 33
0.0
 39
0.18
  0
TEXT
  5
18D
  8
DIM1
 10
2.7548
 20
4.918525
 30
0.0
 40
0.08
  1
AE0203D04
  0
LINE
  5
18E
  8
DIM1
 10
3.7803
 20
5.503525
 30
0.0
 11
4.2798
 21
5.503525
 31
0.0
  0
LINE
  5
18F
  8
DIM1
 10
3.7803
 20
5.680525
 30
0.0
 11
4.2798
 21
5.680525
 31
0.0
  0
LINE
  5
190
  8
DIM1
 10
4.2198
 20
5.323525
 30
0.0
 11
4.2198
 21
5.143525
 31
0.0
  0
LINE
  5
191
  8
DIM1
 10
4.2198
 20
5.860525
 30
0.0
 11
4.2198
 21
6.040525
 31
0.0
  0
SOLID
  5
192
  8
DIM1
 10
4.1898
 20
5.323525
 30
0.0
 11
4.2498
 21
5.323525
 31
0.0
 12
4.2198
 22
5.503525
 32
0.0
 13
4.2198
 23
5.503525
 33
0.0
  0
SOLID
  5
193
  8
DIM1
 10
4.1898
 20
5.860525
 30
0.0
 11
4.2498
 21
5.860525
 31
0.0
 12
4.2198
 22
5.680525
 32
0.0
 13
4.2198
 23
5.680525
 33
0.0
  0
TEXT
  5
194
  8
DIM1
 10
4.0598
 20
5.552025
 30
0.0
 40
0.08
  1
4.5mm
 72
     1
 11
4.2198
 21
5.592025
 31
0.0
 73
     2
  0
LINE
  5
195
  8
DIM1
 10
3.5798
 20
5.743025
 30
0.0
 11
3.5798
 21
6.393525
 31
0.0
  0
LINE
  5
196
  8
DIM1
 10
3.7178
 20
5.743025
 30
0.0
 11
3.7178
 21
6.393525
 31
0.0
  0
LINE
  5
197
  8
DIM1
 10
3.3998
 20
6.333525
 30
0.0
 11
3.2798
 21
6.333525
 31
0.0
  0
LINE
  5
198
  8
DIM1
 10
3.8978
 20
6.333525
 30
0.0
 11
4.0778
 21
6.333525
 31
0.0
  0
SOLID
  5
199
  8
DIM1
 10
3.3998
 20
6.363525
 30
0.0
 11
3.3998
 21
6.303525
 31
0.0
 12
3.5798
 22
6.333525
 32
0.0
 13
3.5798
 23
6.333525
 33
0.0
  0
SOLID
  5
19A
  8
DIM1
 10
3.8978
 20
6.363525
 30
0.0
 11
3.8978
 21
6.303525
 31
0.0
 12
3.7178
 22
6.333525
 32
0.0
 13
3.7178
 23
6.333525
 33
0.0
  0
TEXT
  5
19B
  8
DIM1
 10
4.1638
 20
6.293525
 30
0.0
 40
0.08
  1
3.5mm
 72
     1
 11
4.3238
 21
6.333525
 31
0.0
 73
     2
  0
LINE
  5
19C
  8
DIM1
 10
2.5078
 20
5.743025
 30
0.0
 11
2.5078
 21
6.393525
 31
0.0
  0
LINE
  5
19D
  8
DIM1
 10
2.7048
 20
5.743025
 30
0.0
 11
2.7048
 21
6.393525
 31
0.0
  0
LINE
  5
19E
  8
DIM1
 10
2.3278
 20
6.333525
 30
0.0
 11
2.1478
 21
6.333525
 31
0.0
  0
LINE
  5
19F
  8
DIM1
 10
2.8848
 20
6.333525
 30
0.0
 11
3.0048
 21
6.333525
 31
0.0
  0
SOLID
  5
1A0
  8
DIM1
 10
2.3278
 20
6.363525
 30
0.0
 11
2.3278
 21
6.303525
 31
0.0
 12
2.5078
 22
6.333525
 32
0.0
 13
2.5078
 23
6.333525
 33
0.0
  0
SOLID
  5
1A1
  8
DIM1
 10
2.8848
 20
6.363525
 30
0.0
 11
2.8848
 21
6.303525
 31
0.0
 12
2.7048
 22
6.333525
 32
0.0
 13
2.7048
 23
6.333525
 33
0.0
  0
TEXT
  5
1A2
  8
DIM1
 10
1.742967
 20
6.293525
 30
0.0
 40
0.08
  1
5.0mm
 72
     1
 11
1.8963
 21
6.333525
 31
0.0
 73
     2
  0
TEXT
  5
1A3
  8
DIM1
 10
1.9198
 20
6.448525
 30
0.0
 40
0.07
  1
%%P0.1
  0
TEXT
  5
1A4
  8
DIM1
 10
1.7698
 20
5.293525
 30
0.0
 40
0.07
  1
LEAD LENGTH 100mm
  0
LINE
  5
1A5
  8
DIM1
 39
0.18
 10
2.6298
 20
4.888525
 30
0.0
 11
3.5248
 21
4.888525
 31
0.0
  0
LINE
  5
1A6
  8
DIM1
 39
0.18
 10
3.6448
 20
4.858525
 30
0.0
 11
2.4998
 21
4.858525
 31
0.0
  0
LINE
  5
1A7
  8
DIM1
 39
0.18
 10
7.8498
 20
4.858525
 30
0.0
 11
6.7048
 21
4.858525
 31
0.0
  0
LINE
  5
1A8
  8
DIM1
 39
0.18
 10
6.8348
 20
4.888525
 30
0.0
 11
7.7298
 21
4.888525
 31
0.0
  0
LINE
  5
1A9
  8
SHEET1
 39
0.18
 10
7.9228
 20
5.503525
 30
0.0
 11
7.9228
 21
5.680525
 31
0.0
  0
LINE
  5
1AA
  8
SHEET1
 39
0.18
 10
7.7848
 20
5.503525
 30
0.0
 11
7.7848
 21
5.680525
 31
0.0
  0
LINE
  5
1AB
  8
SHEET1
 39
0.18
 10
7.7848
 20
5.680525
 30
0.0
 11
7.9228
 21
5.680525
 31
0.0
  0
LINE
  5
1AC
  8
SHEET1
 39
0.18
 10
7.7848
 20
5.503525
 30
0.0
 11
7.9228
 21
5.503525
 31
0.0
  0
LINE
  5
1AD
  8
SHEET1
 39
0.18
 10
6.9098
 20
5.503525
 30
0.0
 11
6.9098
 21
5.680525
 31
0.0
  0
LINE
  5
1AE
  8
SHEET1
 39
0.18
 10
6.9098
 20
5.503525
 30
0.0
 11
6.5158
 21
5.503525
 31
0.0
  0
LINE
  5
1AF
  8
SHEET1
 39
0.18
 10
6.9098
 20
5.680525
 30
0.0
 11
6.5158
 21
5.680525
 31
0.0
  0
TRACE
  5
1B0
  8
SHEET1
 10
6.6873
 20
5.493983
 30
0.0
 11
6.6683
 21
5.497067
 31
0.0
 12
6.6873
 22
5.500525
 32
0.0
 13
6.6683
 23
5.500525
 33
0.0
 39
0.18
  0
TRACE
  5
1B1
  8
SHEET1
 10
6.6873
 20
5.500525
 30
0.0
 11
6.6683
 21
5.500525
 31
0.0
 12
6.6873
 22
5.503525
 32
0.0
 13
6.6683
 23
5.503525
 33
0.0
 39
0.18
  0
TRACE
  5
1B2
  8
SHEET1
 10
6.681483
 20
5.476532
 30
0.0
 11
6.664117
 21
5.484518
 31
0.0
 12
6.6873
 22
5.493983
 32
0.0
 13
6.6683
 23
5.497067
 33
0.0
 39
0.18
  0
TRACE
  5
1B3
  8
SHEET1
 10
6.6873
 20
5.683525
 30
0.0
 11
6.6683
 21
5.683525
 31
0.0
 12
6.6873
 22
5.680525
 32
0.0
 13
6.6683
 23
5.680525
 33
0.0
 39
0.18
  0
TRACE
  5
1B4
  8
SHEET1
 10
6.6873
 20
5.690067
 30
0.0
 11
6.6683
 21
5.686983
 31
0.0
 12
6.6873
 22
5.683525
 32
0.0
 13
6.6683
 23
5.683525
 33
0.0
 39
0.18
  0
TRACE
  5
1B5
  8
SHEET1
 10
6.681483
 20
5.707518
 30
0.0
 11
6.664117
 21
5.699532
 31
0.0
 12
6.6873
 22
5.690067
 32
0.0
 13
6.6683
 23
5.686983
 33
0.0
 39
0.18
  0
TRACE
  5
1B6
  8
SHEET1
 10
5.9528
 20
5.753025
 30
0.0
 11
5.9528
 21
5.734025
 31
0.0
 12
6.573195
 22
5.753025
 32
0.0
 13
6.572405
 23
5.734025
 33
0.0
 39
0.18
  0
TRACE
  5
1B7
  8
SHEET1
 10
6.665068
 20
5.724877
 30
0.0
 11
6.650532
 21
5.712173
 31
0.0
 12
6.681483
 22
5.707518
 32
0.0
 13
6.664117
 23
5.699532
 33
0.0
 39
0.18
  0
TRACE
  5
1B8
  8
SHEET1
 10
6.636474
 20
5.742752
 30
0.0
 11
6.629126
 21
5.724298
 31
0.0
 12
6.665068
 22
5.724877
 32
0.0
 13
6.650532
 23
5.712173
 33
0.0
 39
0.18
  0
TRACE
  5
1B9
  8
SHEET1
 10
6.573195
 20
5.753025
 30
0.0
 11
6.572405
 21
5.734025
 31
0.0
 12
6.636474
 22
5.742752
 32
0.0
 13
6.629126
 23
5.724298
 33
0.0
 39
0.18
  0
TRACE
  5
1BA
  8
SHEET1
 10
6.573195
 20
5.431025
 30
0.0
 11
6.572405
 21
5.450025
 31
0.0
 12
6.636474
 22
5.441298
 32
0.0
 13
6.629126
 23
5.459752
 33
0.0
 39
0.18
  0
TRACE
  5
1BB
  8
SHEET1
 10
6.636474
 20
5.441298
 30
0.0
 11
6.629126
 21
5.459752
 31
0.0
 12
6.665068
 22
5.459173
 32
0.0
 13
6.650532
 23
5.471877
 33
0.0
 39
0.18
  0
TRACE
  5
1BC
  8
SHEET1
 10
5.9528
 20
5.431025
 30
0.0
 11
5.9528
 21
5.450025
 31
0.0
 12
6.573195
 22
5.431025
 32
0.0
 13
6.572405
 23
5.450025
 33
0.0
 39
0.18
  0
TRACE
  5
1BD
  8
SHEET1
 10
6.665068
 20
5.459173
 30
0.0
 11
6.650532
 21
5.471877
 31
0.0
 12
6.681483
 22
5.476532
 32
0.0
 13
6.664117
 23
5.484518
 33
0.0
 39
0.18
  0
TEXT
  5
1BE
  8
DIM1
 10
5.9748
 20
5.293525
 30
0.0
 40
0.07
  1
LEAD LENGTH 100mm
  0
TEXT
  5
1BF
  8
DIM1
 10
5.730967
 20
6.293525
 30
0.0
 40
0.08
  1
10.0mm
 72
     1
 11
5.9043
 21
6.333525
 31
0.0
 73
     2
  0
LINE
  5
1C0
  8
DIM1
 10
6.9098
 20
5.743025
 30
0.0
 11
6.9098
 21
6.393525
 31
0.0
  0
LINE
  5
1C1
  8
DIM1
 10
6.5158
 20
5.743025
 30
0.0
 11
6.5158
 21
6.393525
 31
0.0
  0
LINE
  5
1C2
  8
DIM1
 10
7.7848
 20
5.743025
 30
0.0
 11
7.7848
 21
6.393525
 31
0.0
  0
LINE
  5
1C3
  8
DIM1
 10
7.9228
 20
5.743025
 30
0.0
 11
7.9228
 21
6.393525
 31
0.0
  0
TEXT
  5
1C4
  8
DIM1
 10
6.9598
 20
4.918525
 30
0.0
 40
0.08
  1
AE0203D08
  0
TEXT
  5
1C5
  8
DIM1
 10
8.2648
 20
5.552025
 30
0.0
 40
0.08
  1
4.5mm
 72
     1
 11
8.4248
 21
5.592025
 31
0.0
 73
     2
  0
LINE
  5
1C6
  8
DIM1
 10
7.9853
 20
5.503525
 30
0.0
 11
8.4848
 21
5.503525
 31
0.0
  0
LINE
  5
1C7
  8
DIM1
 10
8.4248
 20
5.323525
 30
0.0
 11
8.4248
 21
5.143525
 31
0.0
  0
SOLID
  5
1C8
  8
DIM1
 10
8.3948
 20
5.323525
 30
0.0
 11
8.4548
 21
5.323525
 31
0.0
 12
8.4248
 22
5.503525
 32
0.0
 13
8.4248
 23
5.503525
 33
0.0
  0
LINE
  5
1C9
  8
DIM1
 10
7.9853
 20
5.680525
 30
0.0
 11
8.4848
 21
5.680525
 31
0.0
  0
LINE
  5
1CA
  8
DIM1
 10
8.4248
 20
5.860525
 30
0.0
 11
8.4248
 21
6.040525
 31
0.0
  0
SOLID
  5
1CB
  8
DIM1
 10
8.3948
 20
5.860525
 30
0.0
 11
8.4548
 21
5.860525
 31
0.0
 12
8.4248
 22
5.680525
 32
0.0
 13
8.4248
 23
5.680525
 33
0.0
  0
SOLID
  5
1CC
  8
DIM1
 10
7.6048
 20
6.363525
 30
0.0
 11
7.6048
 21
6.303525
 31
0.0
 12
7.7848
 22
6.333525
 32
0.0
 13
7.7848
 23
6.333525
 33
0.0
  0
LINE
  5
1CD
  8
DIM1
 10
6.3358
 20
6.333525
 30
0.0
 11
6.1558
 21
6.333525
 31
0.0
  0
TEXT
  5
1CE
  8
DIM1
 10
5.9278
 20
6.448525
 30
0.0
 40
0.07
  1
%%P0.1
  0
SOLID
  5
1CF
  8
DIM1
 10
6.3358
 20
6.363525
 30
0.0
 11
6.3358
 21
6.303525
 31
0.0
 12
6.5158
 22
6.333525
 32
0.0
 13
6.5158
 23
6.333525
 33
0.0
  0
LINE
  5
1D0
  8
DIM1
 10
7.0898
 20
6.333525
 30
0.0
 11
7.2098
 21
6.333525
 31
0.0
  0
SOLID
  5
1D1
  8
DIM1
 10
7.0898
 20
6.363525
 30
0.0
 11
7.0898
 21
6.303525
 31
0.0
 12
6.9098
 22
6.333525
 32
0.0
 13
6.9098
 23
6.333525
 33
0.0
  0
LINE
  5
1D2
  8
DIM1
 10
7.6048
 20
6.333525
 30
0.0
 11
7.4848
 21
6.333525
 31
0.0
  0
TEXT
  5
1D3
  8
DIM1
 10
8.3688
 20
6.293525
 30
0.0
 40
0.08
  1
3.5mm
 72
     1
 11
8.5288
 21
6.333525
 31
0.0
 73
     2
  0
SOLID
  5
1D4
  8
DIM1
 10
8.1028
 20
6.363525
 30
0.0
 11
8.1028
 21
6.303525
 31
0.0
 12
7.9228
 22
6.333525
 32
0.0
 13
7.9228
 23
6.333525
 33
0.0
  0
LINE
  5
1D5
  8
DIM1
 10
8.1028
 20
6.333525
 30
0.0
 11
8.2828
 21
6.333525
 31
0.0
  0
LINE
  5
1D6
  8
SHEET1
 39
0.18
 10
6.5158
 20
5.503525
 30
0.0
 11
6.5158
 21
5.680525
 31
0.0
  0
TRACE
  5
1D7
  8
SHEET1
 10
2.4523
 20
2.809483
 30
0.0
 11
2.4333
 21
2.812567
 31
0.0
 12
2.4523
 22
2.816025
 32
0.0
 13
2.4333
 23
2.816025
 33
0.0
 39
0.18
  0
TRACE
  5
1D8
  8
SHEET1
 10
2.4523
 20
2.816025
 30
0.0
 11
2.4333
 21
2.816025
 31
0.0
 12
2.4523
 22
2.819025
 32
0.0
 13
2.4333
 23
2.819025
 33
0.0
 39
0.18
  0
TRACE
  5
1D9
  8
SHEET1
 10
2.446483
 20
2.792032
 30
0.0
 11
2.429117
 21
2.800018
 31
0.0
 12
2.4523
 22
2.809483
 32
0.0
 13
2.4333
 23
2.812567
 33
0.0
 39
0.18
  0
TRACE
  5
1DA
  8
SHEET1
 10
2.338195
 20
2.746525
 30
0.0
 11
2.337405
 21
2.765525
 31
0.0
 12
2.401474
 22
2.756798
 32
0.0
 13
2.394126
 23
2.775252
 33
0.0
 39
0.18
  0
TRACE
  5
1DB
  8
SHEET1
 10
2.401474
 20
2.756798
 30
0.0
 11
2.394126
 21
2.775252
 31
0.0
 12
2.430068
 22
2.774673
 32
0.0
 13
2.415532
 23
2.787377
 33
0.0
 39
0.18
  0
TRACE
  5
1DC
  8
SHEET1
 10
1.7178
 20
2.746525
 30
0.0
 11
1.7178
 21
2.765525
 31
0.0
 12
2.338195
 22
2.746525
 32
0.0
 13
2.337405
 23
2.765525
 33
0.0
 39
0.18
  0
TRACE
  5
1DD
  8
SHEET1
 10
2.430068
 20
2.774673
 30
0.0
 11
2.415532
 21
2.787377
 31
0.0
 12
2.446483
 22
2.792032
 32
0.0
 13
2.429117
 23
2.800018
 33
0.0
 39
0.18
  0
TRACE
  5
1DE
  8
SHEET1
 10
2.4523
 20
3.078025
 30
0.0
 11
2.4333
 21
3.078025
 31
0.0
 12
2.4523
 22
3.075025
 32
0.0
 13
2.4333
 23
3.075025
 33
0.0
 39
0.18
  0
TRACE
  5
1DF
  8
SHEET1
 10
2.4523
 20
3.084567
 30
0.0
 11
2.4333
 21
3.081483
 31
0.0
 12
2.4523
 22
3.078025
 32
0.0
 13
2.4333
 23
3.078025
 33
0.0
 39
0.18
  0
TRACE
  5
1E0
  8
SHEET1
 10
2.446483
 20
3.102018
 30
0.0
 11
2.429117
 21
3.094032
 31
0.0
 12
2.4523
 22
3.084567
 32
0.0
 13
2.4333
 23
3.081483
 33
0.0
 39
0.18
  0
TRACE
  5
1E1
  8
SHEET1
 10
1.7178
 20
3.147525
 30
0.0
 11
1.7178
 21
3.128525
 31
0.0
 12
2.338195
 22
3.147525
 32
0.0
 13
2.337405
 23
3.128525
 33
0.0
 39
0.18
  0
TRACE
  5
1E2
  8
SHEET1
 10
2.430068
 20
3.119377
 30
0.0
 11
2.415532
 21
3.106673
 31
0.0
 12
2.446483
 22
3.102018
 32
0.0
 13
2.429117
 23
3.094032
 33
0.0
 39
0.18
  0
TRACE
  5
1E3
  8
SHEET1
 10
2.401474
 20
3.137252
 30
0.0
 11
2.394126
 21
3.118798
 31
0.0
 12
2.430068
 22
3.119377
 32
0.0
 13
2.415532
 23
3.106673
 33
0.0
 39
0.18
  0
TRACE
  5
1E4
  8
SHEET1
 10
2.338195
 20
3.147525
 30
0.0
 11
2.337405
 21
3.128525
 31
0.0
 12
2.401474
 22
3.137252
 32
0.0
 13
2.394126
 23
3.118798
 33
0.0
 39
0.18
  0
LINE
  5
1E5
  8
SHEET1
 39
0.18
 10
2.2808
 20
2.819025
 30
0.0
 11
2.2808
 21
3.075025
 31
0.0
  0
LINE
  5
1E6
  8
SHEET1
 39
0.18
 10
2.6748
 20
2.819025
 30
0.0
 11
2.6748
 21
3.075025
 31
0.0
  0
LINE
  5
1E7
  8
SHEET1
 39
0.18
 10
3.9378
 20
2.819025
 30
0.0
 11
3.9378
 21
3.075025
 31
0.0
  0
LINE
  5
1E8
  8
DIM1
 39
0.18
 10
2.7348
 20
2.218525
 30
0.0
 11
3.6298
 21
2.218525
 31
0.0
  0
LINE
  5
1E9
  8
DIM1
 39
0.18
 10
3.7498
 20
2.188525
 30
0.0
 11
2.6048
 21
2.188525
 31
0.0
  0
LINE
  5
1EA
  8
DIM1
 10
4.1178
 20
3.688525
 30
0.0
 11
4.2978
 21
3.688525
 31
0.0
  0
LINE
  5
1EB
  8
DIM1
 10
4.0003
 20
3.075025
 30
0.0
 11
4.4998
 21
3.075025
 31
0.0
  0
LINE
  5
1EC
  8
DIM1
 10
4.0003
 20
2.819025
 30
0.0
 11
4.4998
 21
2.819025
 31
0.0
  0
LINE
  5
1ED
  8
DIM1
 10
2.2808
 20
3.098025
 30
0.0
 11
2.2808
 21
3.748525
 31
0.0
  0
LINE
  5
1EE
  8
DIM1
 10
3.9378
 20
3.098025
 30
0.0
 11
3.9378
 21
3.748525
 31
0.0
  0
LINE
  5
1EF
  8
DIM1
 10
3.6818
 20
3.098025
 30
0.0
 11
3.6818
 21
3.748525
 31
0.0
  0
LINE
  5
1F0
  8
DIM1
 10
2.6748
 20
3.098025
 30
0.0
 11
2.6748
 21
3.748525
 31
0.0
  0
TEXT
  5
1F1
  8
DIM1
 10
1.7398
 20
2.609025
 30
0.0
 40
0.07
  1
LEAD LENGTH 100mm
  0
TEXT
  5
1F2
  8
DIM1
 10
2.8598
 20
2.248525
 30
0.0
 40
0.08
  1
AE0505D08
  0
TEXT
  5
1F3
  8
DIM1
 10
1.495967
 20
3.648525
 30
0.0
 40
0.08
  1
10.0mm
 72
     1
 11
1.6693
 21
3.688525
 31
0.0
 73
     2
  0
LINE
  5
1F4
  8
DIM1
 10
2.1008
 20
3.688525
 30
0.0
 11
1.9208
 21
3.688525
 31
0.0
  0
TEXT
  5
1F5
  8
DIM1
 10
1.6428
 20
3.773525
 30
0.0
 40
0.07
  1
%%P0.1
  0
SOLID
  5
1F6
  8
DIM1
 10
2.1008
 20
3.718525
 30
0.0
 11
2.1008
 21
3.658525
 31
0.0
 12
2.2808
 22
3.688525
 32
0.0
 13
2.2808
 23
3.688525
 33
0.0
  0
SOLID
  5
1F7
  8
DIM1
 10
2.8548
 20
3.718525
 30
0.0
 11
2.8548
 21
3.658525
 31
0.0
 12
2.6748
 22
3.688525
 32
0.0
 13
2.6748
 23
3.688525
 33
0.0
  0
LINE
  5
1F8
  8
DIM1
 10
2.8548
 20
3.688525
 30
0.0
 11
2.9748
 21
3.688525
 31
0.0
  0
SOLID
  5
1F9
  8
DIM1
 10
3.5018
 20
3.718525
 30
0.0
 11
3.5018
 21
3.658525
 31
0.0
 12
3.6818
 22
3.688525
 32
0.0
 13
3.6818
 23
3.688525
 33
0.0
  0
LINE
  5
1FA
  8
DIM1
 10
3.5018
 20
3.688525
 30
0.0
 11
3.3818
 21
3.688525
 31
0.0
  0
SOLID
  5
1FB
  8
DIM1
 10
4.1178
 20
3.718525
 30
0.0
 11
4.1178
 21
3.658525
 31
0.0
 12
3.9378
 22
3.688525
 32
0.0
 13
3.9378
 23
3.688525
 33
0.0
  0
TEXT
  5
1FC
  8
DIM1
 10
4.2798
 20
2.907025
 30
0.0
 40
0.08
  1
6.5mm
 72
     1
 11
4.4398
 21
2.947025
 31
0.0
 73
     2
  0
LINE
  5
1FD
  8
DIM1
 10
4.4398
 20
2.639025
 30
0.0
 11
4.4398
 21
2.459025
 31
0.0
  0
SOLID
  5
1FE
  8
DIM1
 10
4.4098
 20
2.639025
 30
0.0
 11
4.4698
 21
2.639025
 31
0.0
 12
4.4398
 22
2.819025
 32
0.0
 13
4.4398
 23
2.819025
 33
0.0
  0
LINE
  5
1FF
  8
DIM1
 10
4.4398
 20
3.255025
 30
0.0
 11
4.4398
 21
3.435025
 31
0.0
  0
SOLID
  5
200
  8
DIM1
 10
4.4098
 20
3.255025
 30
0.0
 11
4.4698
 21
3.255025
 31
0.0
 12
4.4398
 22
3.075025
 32
0.0
 13
4.4398
 23
3.075025
 33
0.0
  0
TEXT
  5
201
  8
DIM1
 10
4.3838
 20
3.648525
 30
0.0
 40
0.08
  1
6.5mm
 72
     1
 11
4.5438
 21
3.688525
 31
0.0
 73
     2
  0
LINE
  5
202
  8
SHEET1
 39
0.18
 10
2.2808
 20
3.075025
 30
0.0
 11
2.6748
 21
3.075025
 31
0.0
  0
LINE
  5
203
  8
SHEET1
 39
0.18
 10
2.2808
 20
2.819025
 30
0.0
 11
2.6748
 21
2.819025
 31
0.0
  0
LINE
  5
204
  8
SHEET1
 39
0.18
 10
3.6818
 20
2.819025
 30
0.0
 11
3.6818
 21
3.075025
 31
0.0
  0
LINE
  5
205
  8
SHEET1
 39
0.18
 10
3.6818
 20
3.075025
 30
0.0
 11
3.9378
 21
3.075025
 31
0.0
  0
LINE
  5
206
  8
SHEET1
 39
0.18
 10
3.6818
 20
2.819025
 30
0.0
 11
3.9378
 21
2.819025
 31
0.0
  0
TEXT
  5
207
  8
DIM1
 10
6.6338
 20
3.773525
 30
0.0
 40
0.07
  1
%%P0.1
  0
LINE
  5
208
  8
DIM1
 39
0.18
 10
7.0898
 20
2.218525
 30
0.0
 11
7.9848
 21
2.218525
 31
0.0
  0
LINE
  5
209
  8
DIM1
 39
0.18
 10
8.1048
 20
2.188525
 30
0.0
 11
6.9598
 21
2.188525
 31
0.0
  0
LINE
  5
20A
  8
SHEET1
 39
0.18
 10
8.0368
 20
3.075025
 30
0.0
 11
8.2928
 21
3.075025
 31
0.0
  0
LINE
  5
20B
  8
SHEET1
 39
0.18
 10
8.0368
 20
2.819025
 30
0.0
 11
8.2928
 21
2.819025
 31
0.0
  0
LINE
  5
20C
  8
SHEET1
 39
0.18
 10
8.2928
 20
2.819025
 30
0.0
 11
8.2928
 21
3.075025
 31
0.0
  0
LINE
  5
20D
  8
SHEET1
 39
0.18
 10
8.0368
 20
2.819025
 30
0.0
 11
8.0368
 21
3.075025
 31
0.0
  0
TRACE
  5
20E
  8
SHEET1
 10
6.7073
 20
3.078025
 30
0.0
 11
6.6883
 21
3.078025
 31
0.0
 12
6.7073
 22
3.075025
 32
0.0
 13
6.6883
 23
3.075025
 33
0.0
 39
0.18
  0
TRACE
  5
20F
  8
SHEET1
 10
6.7073
 20
3.084567
 30
0.0
 11
6.6883
 21
3.081483
 31
0.0
 12
6.7073
 22
3.078025
 32
0.0
 13
6.6883
 23
3.078025
 33
0.0
 39
0.18
  0
TRACE
  5
210
  8
SHEET1
 10
6.701483
 20
3.102018
 30
0.0
 11
6.684117
 21
3.094032
 31
0.0
 12
6.7073
 22
3.084567
 32
0.0
 13
6.6883
 23
3.081483
 33
0.0
 39
0.18
  0
TRACE
  5
211
  8
SHEET1
 10
5.9728
 20
3.147525
 30
0.0
 11
5.9728
 21
3.128525
 31
0.0
 12
6.593195
 22
3.147525
 32
0.0
 13
6.592405
 23
3.128525
 33
0.0
 39
0.18
  0
TRACE
  5
212
  8
SHEET1
 10
6.685068
 20
3.119377
 30
0.0
 11
6.670532
 21
3.106673
 31
0.0
 12
6.701483
 22
3.102018
 32
0.0
 13
6.684117
 23
3.094032
 33
0.0
 39
0.18
  0
TRACE
  5
213
  8
SHEET1
 10
6.656474
 20
3.137252
 30
0.0
 11
6.649126
 21
3.118798
 31
0.0
 12
6.685068
 22
3.119377
 32
0.0
 13
6.670532
 23
3.106673
 33
0.0
 39
0.18
  0
TRACE
  5
214
  8
SHEET1
 10
6.593195
 20
3.147525
 30
0.0
 11
6.592405
 21
3.128525
 31
0.0
 12
6.656474
 22
3.137252
 32
0.0
 13
6.649126
 23
3.118798
 33
0.0
 39
0.18
  0
TRACE
  5
215
  8
SHEET1
 10
6.7073
 20
2.809483
 30
0.0
 11
6.6883
 21
2.812567
 31
0.0
 12
6.7073
 22
2.816025
 32
0.0
 13
6.6883
 23
2.816025
 33
0.0
 39
0.18
  0
TRACE
  5
216
  8
SHEET1
 10
6.7073
 20
2.816025
 30
0.0
 11
6.6883
 21
2.816025
 31
0.0
 12
6.7073
 22
2.819025
 32
0.0
 13
6.6883
 23
2.819025
 33
0.0
 39
0.18
  0
TRACE
  5
217
  8
SHEET1
 10
6.701483
 20
2.792032
 30
0.0
 11
6.684117
 21
2.800018
 31
0.0
 12
6.7073
 22
2.809483
 32
0.0
 13
6.6883
 23
2.812567
 33
0.0
 39
0.18
  0
TRACE
  5
218
  8
SHEET1
 10
6.593195
 20
2.746525
 30
0.0
 11
6.592405
 21
2.765525
 31
0.0
 12
6.656474
 22
2.756798
 32
0.0
 13
6.649126
 23
2.775252
 33
0.0
 39
0.18
  0
TRACE
  5
219
  8
SHEET1
 10
6.656474
 20
2.756798
 30
0.0
 11
6.649126
 21
2.775252
 31
0.0
 12
6.685068
 22
2.774673
 32
0.0
 13
6.670532
 23
2.787377
 33
0.0
 39
0.18
  0
TRACE
  5
21A
  8
SHEET1
 10
5.9728
 20
2.746525
 30
0.0
 11
5.9728
 21
2.765525
 31
0.0
 12
6.593195
 22
2.746525
 32
0.0
 13
6.592405
 23
2.765525
 33
0.0
 39
0.18
  0
TRACE
  5
21B
  8
SHEET1
 10
6.685068
 20
2.774673
 30
0.0
 11
6.670532
 21
2.787377
 31
0.0
 12
6.701483
 22
2.792032
 32
0.0
 13
6.684117
 23
2.800018
 33
0.0
 39
0.18
  0
LINE
  5
21C
  8
SHEET1
 39
0.18
 10
7.0298
 20
2.819025
 30
0.0
 11
7.0298
 21
3.075025
 31
0.0
  0
LINE
  5
21D
  8
SHEET1
 39
0.18
 10
6.2418
 20
2.819025
 30
0.0
 11
7.0298
 21
2.819025
 31
0.0
  0
LINE
  5
21E
  8
SHEET1
 39
0.18
 10
6.2418
 20
3.075025
 30
0.0
 11
7.0298
 21
3.075025
 31
0.0
  0
TEXT
  5
21F
  8
DIM1
 10
6.0948
 20
2.609025
 30
0.0
 40
0.07
  1
LEAD LENGTH 100mm
  0
TEXT
  5
220
  8
DIM1
 10
6.473633
 20
3.648525
 30
0.0
 40
0.08
  1
20.0mm
 72
     1
 11
6.6603
 21
3.688525
 31
0.0
 73
     2
  0
TEXT
  5
221
  8
DIM1
 10
7.2148
 20
2.248525
 30
0.0
 40
0.08
  1
AE0505D16
  0
LINE
  5
222
  8
DIM1
 10
7.8568
 20
3.688525
 30
0.0
 11
7.7368
 21
3.688525
 31
0.0
  0
SOLID
  5
223
  8
DIM1
 10
7.2098
 20
3.718525
 30
0.0
 11
7.2098
 21
3.658525
 31
0.0
 12
7.0298
 22
3.688525
 32
0.0
 13
7.0298
 23
3.688525
 33
0.0
  0
LINE
  5
224
  8
DIM1
 10
7.0298
 20
3.098025
 30
0.0
 11
7.0298
 21
3.748525
 31
0.0
  0
LINE
  5
225
  8
DIM1
 10
6.2418
 20
3.098025
 30
0.0
 11
6.2418
 21
3.748525
 31
0.0
  0
LINE
  5
226
  8
DIM1
 10
6.0618
 20
3.688525
 30
0.0
 11
5.8818
 21
3.688525
 31
0.0
  0
SOLID
  5
227
  8
DIM1
 10
6.0618
 20
3.718525
 30
0.0
 11
6.0618
 21
3.658525
 31
0.0
 12
6.2418
 22
3.688525
 32
0.0
 13
6.2418
 23
3.688525
 33
0.0
  0
LINE
  5
228
  8
DIM1
 10
7.2098
 20
3.688525
 30
0.0
 11
7.3298
 21
3.688525
 31
0.0
  0
LINE
  5
229
  8
DIM1
 10
8.7948
 20
2.639025
 30
0.0
 11
8.7948
 21
2.459025
 31
0.0
  0
LINE
  5
22A
  8
DIM1
 10
8.4728
 20
3.688525
 30
0.0
 11
8.6528
 21
3.688525
 31
0.0
  0
LINE
  5
22B
  8
DIM1
 10
8.3553
 20
3.075025
 30
0.0
 11
8.8548
 21
3.075025
 31
0.0
  0
LINE
  5
22C
  8
DIM1
 10
8.3553
 20
2.819025
 30
0.0
 11
8.8548
 21
2.819025
 31
0.0
  0
TEXT
  5
22D
  8
DIM1
 10
8.6348
 20
2.907025
 30
0.0
 40
0.08
  1
6.5mm
 72
     1
 11
8.7948
 21
2.947025
 31
0.0
 73
     2
  0
LINE
  5
22E
  8
DIM1
 10
8.2928
 20
3.098025
 30
0.0
 11
8.2928
 21
3.748525
 31
0.0
  0
LINE
  5
22F
  8
DIM1
 10
8.0368
 20
3.098025
 30
0.0
 11
8.0368
 21
3.748525
 31
0.0
  0
SOLID
  5
230
  8
DIM1
 10
7.8568
 20
3.718525
 30
0.0
 11
7.8568
 21
3.658525
 31
0.0
 12
8.0368
 22
3.688525
 32
0.0
 13
8.0368
 23
3.688525
 33
0.0
  0
SOLID
  5
231
  8
DIM1
 10
8.4728
 20
3.718525
 30
0.0
 11
8.4728
 21
3.658525
 31
0.0
 12
8.2928
 22
3.688525
 32
0.0
 13
8.2928
 23
3.688525
 33
0.0
  0
SOLID
  5
232
  8
DIM1
 10
8.7648
 20
3.255025
 30
0.0
 11
8.8248
 21
3.255025
 31
0.0
 12
8.7948
 22
3.075025
 32
0.0
 13
8.7948
 23
3.075025
 33
0.0
  0
SOLID
  5
233
  8
DIM1
 10
8.7648
 20
2.639025
 30
0.0
 11
8.8248
 21
2.639025
 31
0.0
 12
8.7948
 22
2.819025
 32
0.0
 13
8.7948
 23
2.819025
 33
0.0
  0
TEXT
  5
234
  8
DIM1
 10
8.7388
 20
3.648525
 30
0.0
 40
0.08
  1
6.5mm
 72
     1
 11
8.8988
 21
3.688525
 31
0.0
 73
     2
  0
LINE
  5
235
  8
DIM1
 10
8.7948
 20
3.255025
 30
0.0
 11
8.7948
 21
3.435025
 31
0.0
  0
LINE
  5
236
  8
SHEET1
 39
0.18
 10
6.2418
 20
2.819025
 30
0.0
 11
6.2418
 21
3.075025
 31
0.0
  0
TEXT
  5
237
  8
DIM1
 10
9.1188
 20
0.642525
 30
0.0
 40
0.08
  1
WEB
  0
TEXT
  5
238
  8
DIM1
 10
9.1188
 20
0.509192
 30
0.0
 40
0.08
  1
MECHANICAL
  0
TEXT
  5
239
  8
DIM1
 10
9.1188
 20
0.375858
 30
0.0
 40
0.08
  1
DRAWING
  0
TEXT
  5
23A
  8
DIM1
 10
0.9198
 20
1.228525
 30
0.0
 40
0.08
  1
NOTES;
  0
TEXT
  5
23B
  8
DIM1
 10
1.1498
 20
1.053525
 30
0.0
 40
0.08
  1
RESIN COATED PIEZOELECTRIC CERAMIC
  0
TEXT
  5
23D
  8
DIM1
 10
8.3098
 20
0.383525
 30
0.0
 40
0.07
  1
A
  0
INSERT
  5
24D
  8
DIM1
  2
COPYRIGHT99
 10
0.0598
 20
7.293525
 30
0.0
 41
0.5
 42
0.5
 43
0.5
  0
LINE
  5
256
  8
D1
 10
7.008749
 20
0.203673
 30
0.0
 11
4.021138
 21
0.203673
 31
0.0
  0
LINE
  5
257
  8
D1
 10
4.068655
 20
0.233343
 30
0.0
 11
6.961232
 21
0.233343
 31
0.0
  0
TEXT
  5
258
  8
D1
 10
4.117518
 20
0.256784
 30
0.0
 40
0.075
  1
INFORMATION ONLY, NOT FOR MANUFACTURING
  0
ENDSEC
  0
EOF
