ISO-10303-21;
HEADER;
FILE_DESCRIPTION (( 'STEP AP203' ),
    '1' );
FILE_NAME ('TTN051881-E0W.STEP',
    '2017-04-18T15:07:22',
    ( 'admin' ),
    ( '' ),
    'SwSTEP 2.0',
    'SolidWorks 2016',
    '' );
FILE_SCHEMA (( 'CONFIG_CONTROL_DESIGN' ));
ENDSEC;

DATA;
#1 = CARTESIAN_POINT ( 'NONE',  ( 0.0000000000000000000, 5.376559872473216200E-016, -0.04645669291338529900 ) ) ;
#2 = ORIENTED_EDGE ( 'NONE', *, *, #209, .T. ) ;
#3 = CARTESIAN_POINT ( 'NONE',  ( 0.0000000000000000000, 0.2421458068001513300, 0.03977418638908746700 ) ) ;
#4 = DIRECTION ( 'NONE',  ( -1.000000000000000000, 0.0000000000000000000, -0.0000000000000000000 ) ) ;
#5 = CC_DESIGN_PERSON_AND_ORGANIZATION_ASSIGNMENT ( #246, #125, ( #250 ) ) ;
#6 = LENGTH_MEASURE_WITH_UNIT ( LENGTH_MEASURE( 0.02539999999999999900 ), #43 );
#7 = EDGE_CURVE ( 'NONE', #223, #60, #129, .T. ) ;
#8 = ADVANCED_BREP_SHAPE_REPRESENTATION ( 'TTN051881-E0W', ( #328, #325 ), #222 ) ;
#9 = APPROVAL_DATE_TIME ( #83, #93 ) ;
#10 = LINE ( 'NONE', #161, #275 ) ;
#11 = CIRCLE ( 'NONE', #119, 0.2421458068001514400 ) ;
#12 = AXIS2_PLACEMENT_3D ( 'NONE', #306, #52, #305 ) ;
#13 = SPHERICAL_SURFACE ( 'NONE', #164, 4.390511811023622500 ) ;
#14 = ORIENTED_EDGE ( 'NONE', *, *, #278, .F. ) ;
#15 = ORIENTED_EDGE ( 'NONE', *, *, #247, .F. ) ;
#16 = APPROVAL_PERSON_ORGANIZATION ( #88, #93, #206 ) ;
#17 = DIRECTION ( 'NONE',  ( 0.0000000000000000000, -1.000000000000000000, -1.244432590662977400E-016 ) ) ;
#18 = DIRECTION ( 'NONE',  ( -0.0000000000000000000, -1.836909530733602400E-016, 1.000000000000000000 ) ) ;
#19 = APPLICATION_CONTEXT ( 'configuration controlled 3d designs of mechanical parts and assemblies' ) ;
#20 = APPROVAL ( #98, 'UNSPECIFIED' ) ;
#21 = APPROVAL_STATUS ( 'not_yet_approved' ) ;
#22 = CC_DESIGN_PERSON_AND_ORGANIZATION_ASSIGNMENT ( #166, #302, ( #250 ) ) ;
#23 = COORDINATED_UNIVERSAL_TIME_OFFSET ( 5, 0, .BEHIND. ) ;
#24 = DIRECTION ( 'NONE',  ( 0.0000000000000000000, -1.000000000000000000, -1.762786044700461800E-016 ) ) ;
#25 = DIRECTION ( 'NONE',  ( 1.000000000000000000, -1.224646799147353200E-016, -2.249565377136128000E-032 ) ) ;
#26 = CIRCLE ( 'NONE', #140, 4.390511811023622500 ) ;
#27 = CARTESIAN_POINT ( 'NONE',  ( 0.0000000000000000000, -8.052697830544066200E-016, 0.03977418638908687700 ) ) ;
#28 = AXIS2_PLACEMENT_3D ( 'NONE', #27, #217, #53 ) ;
#29 = CLOSED_SHELL ( 'NONE', ( #313, #63, #279, #142, #293, #167, #90, #35, #197, #227 ) ) ;
#30 = DATE_AND_TIME ( #101, #171 ) ;
#31 = CIRCLE ( 'NONE', #273, 0.2500000000000000000 ) ;
#32 = CONICAL_SURFACE ( 'NONE', #326, 0.2500000000000000000, 0.7569122712047713400 ) ;
#33 = PRODUCT_DEFINITION ( 'UNKNOWN', '', #250, #242 ) ;
#34 = FACE_OUTER_BOUND ( 'NONE', #44, .T. ) ;
#35 = ADVANCED_FACE ( 'NONE', ( #315 ), #267, .T. ) ;
#36 = VERTEX_POINT ( 'NONE', #189 ) ;
#37 = VERTEX_POINT ( 'NONE', #221 ) ;
#38 = CARTESIAN_POINT ( 'NONE',  ( 0.0000000000000000000, 1.431245882103572200E-017, -0.03145927726136781700 ) ) ;
#39 = PERSON_AND_ORGANIZATION ( #264, #321 ) ;
#40 = SECURITY_CLASSIFICATION ( '', '', #152 ) ;
#41 = CARTESIAN_POINT ( 'NONE',  ( 0.0000000000000000000, 1.431245882103572200E-017, -0.03145927726136781700 ) ) ;
#42 = ORIENTED_EDGE ( 'NONE', *, *, #262, .T. ) ;
#43 =( LENGTH_UNIT ( ) NAMED_UNIT ( * ) SI_UNIT ( $, .METRE. ) );
#44 = EDGE_LOOP ( 'NONE', ( #14, #64, #128, #330 ) ) ;
#45 = ORIENTED_EDGE ( 'NONE', *, *, #149, .F. ) ;
#46 = APPROVAL_STATUS ( 'not_yet_approved' ) ;
#47 = AXIS2_PLACEMENT_3D ( 'NONE', #109, #290, #136 ) ;
#48 = SPHERICAL_SURFACE ( 'NONE', #294, 4.390511811023622500 ) ;
#49 = PERSON_AND_ORGANIZATION ( #264, #321 ) ;
#50 = COORDINATED_UNIVERSAL_TIME_OFFSET ( 5, 0, .BEHIND. ) ;
#51 = EDGE_LOOP ( 'NONE', ( #133, #320, #310 ) ) ;
#52 = DIRECTION ( 'NONE',  ( -0.0000000000000000000, -1.836909530733565900E-016, 1.000000000000000000 ) ) ;
#53 = DIRECTION ( 'NONE',  ( 0.0000000000000000000, 1.000000000000000000, 1.762786044700463800E-016 ) ) ;
#54 = DIRECTION ( 'NONE',  ( -0.0000000000000000000, -1.836909530733602400E-016, 1.000000000000000000 ) ) ;
#55 = VECTOR ( 'NONE', #238, 39.37007874015748100 ) ;
#56 = CARTESIAN_POINT ( 'NONE',  ( 0.0000000000000000000, 1.227515992367316500E-018, 0.03977418638908741800 ) ) ;
#57 = LINE ( 'NONE', #3, #200 ) ;
#58 = CC_DESIGN_PERSON_AND_ORGANIZATION_ASSIGNMENT ( #95, #324, ( #40 ) ) ;
#59 = ORIENTED_EDGE ( 'NONE', *, *, #126, .F. ) ;
#60 = VERTEX_POINT ( 'NONE', #137 ) ;
#61 = SHAPE_DEFINITION_REPRESENTATION ( #86, #8 ) ;
#62 = FACE_OUTER_BOUND ( 'NONE', #179, .T. ) ;
#63 = ADVANCED_FACE ( 'NONE', ( #153 ), #104, .T. ) ;
#64 = ORIENTED_EDGE ( 'NONE', *, *, #97, .F. ) ;
#65 = ORIENTED_EDGE ( 'NONE', *, *, #134, .T. ) ;
#66 = CYLINDRICAL_SURFACE ( 'NONE', #87, 0.2500000000000000000 ) ;
#67 = AXIS2_PLACEMENT_3D ( 'NONE', #84, #271, #106 ) ;
#68 = DIRECTION ( 'NONE',  ( 0.0000000000000000000, -1.000000000000000000, -1.878145495644180800E-016 ) ) ;
#69 = DIRECTION ( 'NONE',  ( 0.0000000000000000000, -1.000000000000000000, -1.878145495644180800E-016 ) ) ;
#70 = CARTESIAN_POINT ( 'NONE',  ( 0.0000000000000000000, 1.227515992367316500E-018, 0.03977418638908741800 ) ) ;
#71 = CONICAL_SURFACE ( 'NONE', #308, 0.2421458068001513300, 0.7569122712047844400 ) ;
#72 = LINE ( 'NONE', #138, #211 ) ;
#73 =( NAMED_UNIT ( * ) PLANE_ANGLE_UNIT ( ) SI_UNIT ( $, .RADIAN. ) );
#74 = PERSON_AND_ORGANIZATION_ROLE ( 'creator' ) ;
#75 = ORIENTED_EDGE ( 'NONE', *, *, #319, .T. ) ;
#76 = CC_DESIGN_PERSON_AND_ORGANIZATION_ASSIGNMENT ( #270, #176, ( #323 ) ) ;
#77 = CIRCLE ( 'NONE', #99, 4.390511811023622500 ) ;
#78 = ORIENTED_EDGE ( 'NONE', *, *, #107, .F. ) ;
#79 = FACE_OUTER_BOUND ( 'NONE', #94, .T. ) ;
#80 = CC_DESIGN_DATE_AND_TIME_ASSIGNMENT ( #160, #177, ( #40 ) ) ;
#81 = DIRECTION ( 'NONE',  ( -0.0000000000000000000, -1.836909530733566100E-016, 1.000000000000000000 ) ) ;
#82 = VERTEX_POINT ( 'NONE', #130 ) ;
#83 = DATE_AND_TIME ( #147, #224 ) ;
#84 = CARTESIAN_POINT ( 'NONE',  ( 0.0000000000000000000, 2.754889574756461800E-018, 0.03145927726136782400 ) ) ;
#85 = LINE ( 'NONE', #172, #234 ) ;
#86 = PRODUCT_DEFINITION_SHAPE ( 'NONE', 'NONE',  #33 ) ;
#87 = AXIS2_PLACEMENT_3D ( 'NONE', #181, #304, #327 ) ;
#88 = PERSON_AND_ORGANIZATION ( #264, #321 ) ;
#89 = ORIENTED_EDGE ( 'NONE', *, *, #134, .F. ) ;
#90 = ADVANCED_FACE ( 'NONE', ( #283 ), #66, .T. ) ;
#91 = EDGE_CURVE ( 'NONE', #36, #82, #77, .T. ) ;
#92 = FACE_OUTER_BOUND ( 'NONE', #51, .T. ) ;
#93 = APPROVAL ( #21, 'UNSPECIFIED' ) ;
#94 = EDGE_LOOP ( 'NONE', ( #75, #296, #199 ) ) ;
#95 = PERSON_AND_ORGANIZATION ( #264, #321 ) ;
#96 = DIRECTION ( 'NONE',  ( 0.0000000000000000000, 1.836909530733602400E-016, -1.000000000000000000 ) ) ;
#97 = EDGE_CURVE ( 'NONE', #253, #228, #11, .T. ) ;
#98 = APPROVAL_STATUS ( 'not_yet_approved' ) ;
#99 = AXIS2_PLACEMENT_3D ( 'NONE', #102, #286, #132 ) ;
#100 = EDGE_LOOP ( 'NONE', ( #45, #183, #89, #251 ) ) ;
#101 = CALENDAR_DATE ( 2017, 18, 4 ) ;
#102 = CARTESIAN_POINT ( 'NONE',  ( 0.0000000000000000000, 0.0000000000000000000, -4.344055118110237100 ) ) ;
#103 = CARTESIAN_POINT ( 'NONE',  ( 0.0000000000000000000, 2.754889574756461800E-018, 0.03145927726136782400 ) ) ;
#104 = CONICAL_SURFACE ( 'NONE', #169, 0.2500000000000000000, 0.7569122712047713400 ) ;
#105 = VECTOR ( 'NONE', #317, 39.37007874015748100 ) ;
#106 = DIRECTION ( 'NONE',  ( 0.0000000000000000000, 1.000000000000000000, 1.878145495644180800E-016 ) ) ;
#107 = EDGE_CURVE ( 'NONE', #194, #37, #10, .T. ) ;
#108 = ORIENTED_EDGE ( 'NONE', *, *, #226, .F. ) ;
#109 = CARTESIAN_POINT ( 'NONE',  ( 0.0000000000000000000, 0.0000000000000000000, -4.344055118110237100 ) ) ;
#110 = DIRECTION ( 'NONE',  ( 0.0000000000000000000, 1.836909530733602400E-016, -1.000000000000000000 ) ) ;
#111 = CARTESIAN_POINT ( 'NONE',  ( 0.0000000000000000000, -0.2421458068001517700, -0.03977418638908743900 ) ) ;
#112 = DATE_AND_TIME ( #180, #258 ) ;
#113 = CC_DESIGN_APPROVAL ( #93, ( #40 ) ) ;
#114 = EDGE_CURVE ( 'NONE', #60, #37, #266, .T. ) ;
#115 = ORIENTED_EDGE ( 'NONE', *, *, #209, .F. ) ;
#116 = APPROVAL_DATE_TIME ( #187, #139 ) ;
#117 = ORIENTED_EDGE ( 'NONE', *, *, #107, .T. ) ;
#118 = CIRCLE ( 'NONE', #47, 4.390511811023622500 ) ;
#119 = AXIS2_PLACEMENT_3D ( 'NONE', #329, #184, #24 ) ;
#120 = CIRCLE ( 'NONE', #218, 0.2500000000000000000 ) ;
#121 = VERTEX_POINT ( 'NONE', #214 ) ;
#122 = CARTESIAN_POINT ( 'NONE',  ( 0.0000000000000000000, 8.052697830544067200E-016, -0.03977418638908741800 ) ) ;
#123 = CARTESIAN_POINT ( 'NONE',  ( 0.0000000000000000000, 0.0000000000000000000, 4.344055118110237100 ) ) ;
#124 = APPROVAL_PERSON_ORGANIZATION ( #196, #139, #241 ) ;
#125 = PERSON_AND_ORGANIZATION_ROLE ( 'creator' ) ;
#126 = EDGE_CURVE ( 'NONE', #156, #228, #26, .T. ) ;
#127 = EDGE_LOOP ( 'NONE', ( #59, #2, #244 ) ) ;
#128 = ORIENTED_EDGE ( 'NONE', *, *, #226, .T. ) ;
#129 = LINE ( 'NONE', #203, #55 ) ;
#130 = CARTESIAN_POINT ( 'NONE',  ( 0.0000000000000000000, -5.376559872473216200E-016, 0.04645669291338529900 ) ) ;
#131 = CC_DESIGN_SECURITY_CLASSIFICATION ( #40, ( #250 ) ) ;
#132 = DIRECTION ( 'NONE',  ( 0.0000000000000000000, 0.0000000000000000000, -1.000000000000000000 ) ) ;
#133 = ORIENTED_EDGE ( 'NONE', *, *, #157, .F. ) ;
#134 = EDGE_CURVE ( 'NONE', #37, #60, #309, .T. ) ;
#135 = DIRECTION ( 'NONE',  ( 0.0000000000000000000, 1.000000000000000000, 1.878145495644180800E-016 ) ) ;
#136 = DIRECTION ( 'NONE',  ( -1.224646799147353200E-016, -1.000000000000000000, 0.0000000000000000000 ) ) ;
#137 = CARTESIAN_POINT ( 'NONE',  ( 0.0000000000000000000, -0.2500000000000000000, 0.03145927726136777500 ) ) ;
#138 = CARTESIAN_POINT ( 'NONE',  ( 0.0000000000000000000, -0.2500000000000000000, -0.03145927726136787300 ) ) ;
#139 = APPROVAL ( #46, 'UNSPECIFIED' ) ;
#140 = AXIS2_PLACEMENT_3D ( 'NONE', #186, #25, #215 ) ;
#141 = CARTESIAN_POINT ( 'NONE',  ( 2.965430872247586600E-017, -0.2421458068001513300, 0.03977418638908737600 ) ) ;
#142 = ADVANCED_FACE ( 'NONE', ( #175 ), #207, .T. ) ;
#143 = AXIS2_PLACEMENT_3D ( 'NONE', #174, #18, #204 ) ;
#144 = DIRECTION ( 'NONE',  ( 0.0000000000000000000, -1.000000000000000000, -1.762786044700461800E-016 ) ) ;
#145 = PRODUCT_RELATED_PRODUCT_CATEGORY ( 'detail', '', ( #323 ) ) ;
#146 = DIRECTION ( 'NONE',  ( 0.0000000000000000000, 1.000000000000000000, 1.244432590662977400E-016 ) ) ;
#147 = CALENDAR_DATE ( 2017, 18, 4 ) ;
#148 = DIRECTION ( 'NONE',  ( 0.0000000000000000000, 0.0000000000000000000, 1.000000000000000000 ) ) ;
#149 = EDGE_CURVE ( 'NONE', #121, #36, #192, .T. ) ;
#150 = DIRECTION ( 'NONE',  ( 1.000000000000000000, 0.0000000000000000000, 0.0000000000000000000 ) ) ;
#151 = ORIENTED_EDGE ( 'NONE', *, *, #7, .T. ) ;
#152 = SECURITY_CLASSIFICATION_LEVEL ( 'unclassified' ) ;
#153 = FACE_OUTER_BOUND ( 'NONE', #170, .T. ) ;
#154 = CC_DESIGN_APPROVAL ( #139, ( #33 ) ) ;
#155 = AXIS2_PLACEMENT_3D ( 'NONE', #210, #185, #17 ) ;
#156 = VERTEX_POINT ( 'NONE', #1 ) ;
#157 = EDGE_CURVE ( 'NONE', #121, #82, #118, .T. ) ;
#158 = ORIENTED_EDGE ( 'NONE', *, *, #114, .F. ) ;
#159 = CONICAL_SURFACE ( 'NONE', #198, 0.2421458068001513300, 0.7569122712047844400 ) ;
#160 = DATE_AND_TIME ( #237, #292 ) ;
#161 = CARTESIAN_POINT ( 'NONE',  ( 3.061616997868383000E-017, 0.2500000000000000000, 0.04645669291338586800 ) ) ;
#162 = UNCERTAINTY_MEASURE_WITH_UNIT (LENGTH_MEASURE( 1.000000000000000100E-005 ), #240, 'distance_accuracy_value', 'NONE');
#163 = CARTESIAN_POINT ( 'NONE',  ( 0.0000000000000000000, 0.0000000000000000000, -4.344055118110237100 ) ) ;
#164 = AXIS2_PLACEMENT_3D ( 'NONE', #202, #173, #146 ) ;
#165 = CARTESIAN_POINT ( 'NONE',  ( 0.0000000000000000000, 0.0000000000000000000, 4.344055118110237100 ) ) ;
#166 = PERSON_AND_ORGANIZATION ( #264, #321 ) ;
#167 = ADVANCED_FACE ( 'NONE', ( #92 ), #48, .T. ) ;
#168 = ORIENTED_EDGE ( 'NONE', *, *, #114, .T. ) ;
#169 = AXIS2_PLACEMENT_3D ( 'NONE', #245, #269, #285 ) ;
#170 = EDGE_LOOP ( 'NONE', ( #15, #213, #276, #108 ) ) ;
#171 = LOCAL_TIME ( 11, 7, 22.00000000000000000, #252 ) ;
#172 = CARTESIAN_POINT ( 'NONE',  ( 3.061616997868382400E-017, 0.2500000000000000000, -0.03145927726136777500 ) ) ;
#173 = DIRECTION ( 'NONE',  ( -1.000000000000000000, 0.0000000000000000000, 0.0000000000000000000 ) ) ;
#174 = CARTESIAN_POINT ( 'NONE',  ( 0.0000000000000000000, -8.052697830544066200E-016, 0.03977418638908687700 ) ) ;
#175 = FACE_OUTER_BOUND ( 'NONE', #256, .T. ) ;
#176 = PERSON_AND_ORGANIZATION_ROLE ( 'design_owner' ) ;
#177 = DATE_TIME_ROLE ( 'classification_date' ) ;
#178 = AXIS2_PLACEMENT_3D ( 'NONE', #123, #299, #318 ) ;
#179 = EDGE_LOOP ( 'NONE', ( #280, #314, #257, #158 ) ) ;
#180 = CALENDAR_DATE ( 2017, 18, 4 ) ;
#181 = CARTESIAN_POINT ( 'NONE',  ( 0.0000000000000000000, 0.0000000000000000000, 0.04645669291338581900 ) ) ;
#182 = ORIENTED_EDGE ( 'NONE', *, *, #231, .T. ) ;
#183 = ORIENTED_EDGE ( 'NONE', *, *, #268, .T. ) ;
#184 = DIRECTION ( 'NONE',  ( 0.0000000000000000000, 1.836909530733602400E-016, -1.000000000000000000 ) ) ;
#185 = DIRECTION ( 'NONE',  ( 1.000000000000000000, 0.0000000000000000000, 0.0000000000000000000 ) ) ;
#186 = CARTESIAN_POINT ( 'NONE',  ( 0.0000000000000000000, 0.0000000000000000000, 4.344055118110237100 ) ) ;
#187 = DATE_AND_TIME ( #260, #312 ) ;
#188 = CARTESIAN_POINT ( 'NONE',  ( 0.0000000000000000000, 1.431245882103573200E-017, -0.03145927726136782400 ) ) ;
#189 = CARTESIAN_POINT ( 'NONE',  ( 0.0000000000000000000, 0.2421458068001571500, 0.03977418638908689100 ) ) ;
#190 = CIRCLE ( 'NONE', #284, 4.390511811023622500 ) ;
#191 = DIRECTION ( 'NONE',  ( 0.0000000000000000000, 0.0000000000000000000, 1.000000000000000000 ) ) ;
#192 = CIRCLE ( 'NONE', #28, 0.2421458068001511600 ) ;
#193 = EDGE_CURVE ( 'NONE', #36, #37, #57, .T. ) ;
#194 = VERTEX_POINT ( 'NONE', #248 ) ;
#195 = EDGE_LOOP ( 'NONE', ( #78, #182, #151, #168 ) ) ;
#196 = PERSON_AND_ORGANIZATION ( #264, #321 ) ;
#197 = ADVANCED_FACE ( 'NONE', ( #34 ), #32, .T. ) ;
#198 = AXIS2_PLACEMENT_3D ( 'NONE', #70, #96, #259 ) ;
#199 = ORIENTED_EDGE ( 'NONE', *, *, #91, .F. ) ;
#200 = VECTOR ( 'NONE', #289, 39.37007874015748100 ) ;
#201 = DIRECTION ( 'NONE',  ( 8.409405467450285000E-017, 0.6866800675350018800, 0.7269597546289100500 ) ) ;
#202 = CARTESIAN_POINT ( 'NONE',  ( 0.0000000000000000000, 0.0000000000000000000, -4.344055118110237100 ) ) ;
#203 = CARTESIAN_POINT ( 'NONE',  ( 0.0000000000000000000, -0.2500000000000000000, 0.04645669291338577800 ) ) ;
#204 = DIRECTION ( 'NONE',  ( 0.0000000000000000000, 1.000000000000000000, 1.762786044700463800E-016 ) ) ;
#205 = APPLICATION_PROTOCOL_DEFINITION ( 'international standard', 'config_control_design', 1994, #19 ) ;
#206 = APPROVAL_ROLE ( '' ) ;
#207 = CYLINDRICAL_SURFACE ( 'NONE', #12, 0.2500000000000000000 ) ;
#208 = CC_DESIGN_PERSON_AND_ORGANIZATION_ASSIGNMENT ( #49, #74, ( #33 ) ) ;
#209 = EDGE_CURVE ( 'NONE', #156, #253, #190, .T. ) ;
#210 = CARTESIAN_POINT ( 'NONE',  ( 0.0000000000000000000, 0.0000000000000000000, 4.344055118110237100 ) ) ;
#211 = VECTOR ( 'NONE', #220, 39.37007874015748900 ) ;
#212 = EDGE_LOOP ( 'NONE', ( #115, #216, #291 ) ) ;
#213 = ORIENTED_EDGE ( 'NONE', *, *, #278, .T. ) ;
#214 = CARTESIAN_POINT ( 'NONE',  ( -2.965430872247668600E-017, -0.2421458068001587900, 0.03977418638908685600 ) ) ;
#215 = DIRECTION ( 'NONE',  ( 1.224646799147353200E-016, 1.000000000000000000, 0.0000000000000000000 ) ) ;
#216 = ORIENTED_EDGE ( 'NONE', *, *, #126, .T. ) ;
#217 = DIRECTION ( 'NONE',  ( -0.0000000000000000000, -1.836909530733602400E-016, 1.000000000000000000 ) ) ;
#218 = AXIS2_PLACEMENT_3D ( 'NONE', #41, #236, #69 ) ;
#219 = DIRECTION ( 'NONE',  ( 0.0000000000000000000, -1.000000000000000000, -1.878145495644180800E-016 ) ) ;
#220 = DIRECTION ( 'NONE',  ( 0.0000000000000000000, -0.6866800675350021000, 0.7269597546289098300 ) ) ;
#221 = CARTESIAN_POINT ( 'NONE',  ( 3.061616997868383000E-017, 0.2500000000000000000, 0.03145927726136787300 ) ) ;
#222 =( GEOMETRIC_REPRESENTATION_CONTEXT ( 3 ) GLOBAL_UNCERTAINTY_ASSIGNED_CONTEXT ( ( #162 ) ) GLOBAL_UNIT_ASSIGNED_CONTEXT ( ( #240, #73, #261 ) ) REPRESENTATION_CONTEXT ( 'NONE', 'WORKASPACE' ) );
#223 = VERTEX_POINT ( 'NONE', #274 ) ;
#224 = LOCAL_TIME ( 11, 7, 22.00000000000000000, #287 ) ;
#225 = CIRCLE ( 'NONE', #243, 0.2421458068001514400 ) ;
#226 = EDGE_CURVE ( 'NONE', #253, #223, #72, .T. ) ;
#227 = ADVANCED_FACE ( 'NONE', ( #62 ), #71, .T. ) ;
#228 = VERTEX_POINT ( 'NONE', #277 ) ;
#229 = CC_DESIGN_DATE_AND_TIME_ASSIGNMENT ( #112, #265, ( #33 ) ) ;
#230 = FACE_OUTER_BOUND ( 'NONE', #100, .T. ) ;
#231 = EDGE_CURVE ( 'NONE', #194, #223, #31, .T. ) ;
#232 = DIRECTION ( 'NONE',  ( -0.0000000000000000000, -1.836909530733602400E-016, 1.000000000000000000 ) ) ;
#233 = FACE_OUTER_BOUND ( 'NONE', #212, .T. ) ;
#234 = VECTOR ( 'NONE', #201, 39.37007874015748900 ) ;
#235 = CIRCLE ( 'NONE', #143, 0.2421458068001511600 ) ;
#236 = DIRECTION ( 'NONE',  ( -0.0000000000000000000, -1.836909530733602400E-016, 1.000000000000000000 ) ) ;
#237 = CALENDAR_DATE ( 2017, 18, 4 ) ;
#238 = DIRECTION ( 'NONE',  ( -0.0000000000000000000, -1.836909530733566100E-016, 1.000000000000000000 ) ) ;
#239 = CARTESIAN_POINT ( 'NONE',  ( 0.0000000000000000000, 0.0000000000000000000, 0.0000000000000000000 ) ) ;
#240 =( CONVERSION_BASED_UNIT ( 'INCH', #6 ) LENGTH_UNIT ( ) NAMED_UNIT ( #254 ) );
#241 = APPROVAL_ROLE ( '' ) ;
#242 = DESIGN_CONTEXT ( 'detailed design', #19, 'design' ) ;
#243 = AXIS2_PLACEMENT_3D ( 'NONE', #122, #297, #144 ) ;
#244 = ORIENTED_EDGE ( 'NONE', *, *, #97, .T. ) ;
#245 = CARTESIAN_POINT ( 'NONE',  ( 0.0000000000000000000, 1.431245882103573200E-017, -0.03145927726136782400 ) ) ;
#246 = PERSON_AND_ORGANIZATION ( #264, #321 ) ;
#247 = EDGE_CURVE ( 'NONE', #228, #253, #225, .T. ) ;
#248 = CARTESIAN_POINT ( 'NONE',  ( 3.061616997868383000E-017, 0.2500000000000000000, -0.03145927726136776800 ) ) ;
#249 = DIRECTION ( 'NONE',  ( 0.0000000000000000000, 1.000000000000000000, 1.762786044700462600E-016 ) ) ;
#250 = PRODUCT_DEFINITION_FORMATION_WITH_SPECIFIED_SOURCE ( 'ANY', '', #323, .NOT_KNOWN. ) ;
#251 = ORIENTED_EDGE ( 'NONE', *, *, #193, .F. ) ;
#252 = COORDINATED_UNIVERSAL_TIME_OFFSET ( 5, 0, .BEHIND. ) ;
#253 = VERTEX_POINT ( 'NONE', #111 ) ;
#254 = DIMENSIONAL_EXPONENTS ( 1.000000000000000000, 0.0000000000000000000, 0.0000000000000000000, 0.0000000000000000000, 0.0000000000000000000, 0.0000000000000000000, 0.0000000000000000000 ) ;
#255 = AXIS2_PLACEMENT_3D ( 'NONE', #103, #288, #135 ) ;
#256 = EDGE_LOOP ( 'NONE', ( #42, #117, #65, #301 ) ) ;
#257 = ORIENTED_EDGE ( 'NONE', *, *, #193, .T. ) ;
#258 = LOCAL_TIME ( 11, 7, 22.00000000000000000, #311 ) ;
#259 = DIRECTION ( 'NONE',  ( 0.0000000000000000000, 1.000000000000000000, 1.762786044700462600E-016 ) ) ;
#260 = CALENDAR_DATE ( 2017, 18, 4 ) ;
#261 =( NAMED_UNIT ( * ) SI_UNIT ( $, .STERADIAN. ) SOLID_ANGLE_UNIT ( ) );
#262 = EDGE_CURVE ( 'NONE', #223, #194, #120, .T. ) ;
#263 = SPHERICAL_SURFACE ( 'NONE', #178, 4.390511811023622500 ) ;
#264 = PERSON ( 'UNSPECIFIED', 'UNSPECIFIED', 'UNSPECIFIED', ('UNSPECIFIED'), ('UNSPECIFIED'), ('UNSPECIFIED') ) ;
#265 = DATE_TIME_ROLE ( 'creation_date' ) ;
#266 = CIRCLE ( 'NONE', #255, 0.2500000000000000000 ) ;
#267 = SPHERICAL_SURFACE ( 'NONE', #155, 4.390511811023622500 ) ;
#268 = EDGE_CURVE ( 'NONE', #121, #60, #295, .T. ) ;
#269 = DIRECTION ( 'NONE',  ( -0.0000000000000000000, -1.836909530733602400E-016, 1.000000000000000000 ) ) ;
#270 = PERSON_AND_ORGANIZATION ( #264, #321 ) ;
#271 = DIRECTION ( 'NONE',  ( 0.0000000000000000000, 1.836909530733602400E-016, -1.000000000000000000 ) ) ;
#272 = DIRECTION ( 'NONE',  ( -1.000000000000000000, 0.0000000000000000000, 0.0000000000000000000 ) ) ;
#273 = AXIS2_PLACEMENT_3D ( 'NONE', #38, #232, #68 ) ;
#274 = CARTESIAN_POINT ( 'NONE',  ( 0.0000000000000000000, -0.2500000000000000000, -0.03145927726136785900 ) ) ;
#275 = VECTOR ( 'NONE', #81, 39.37007874015748100 ) ;
#276 = ORIENTED_EDGE ( 'NONE', *, *, #262, .F. ) ;
#277 = CARTESIAN_POINT ( 'NONE',  ( 2.965430872247602000E-017, 0.2421458068001533800, -0.03977418638908740400 ) ) ;
#278 = EDGE_CURVE ( 'NONE', #228, #194, #85, .T. ) ;
#279 = ADVANCED_FACE ( 'NONE', ( #233 ), #263, .T. ) ;
#280 = ORIENTED_EDGE ( 'NONE', *, *, #268, .F. ) ;
#281 = APPLICATION_PROTOCOL_DEFINITION ( 'international standard', 'config_control_design', 1994, #300 ) ;
#282 = APPROVAL_ROLE ( '' ) ;
#283 = FACE_OUTER_BOUND ( 'NONE', #195, .T. ) ;
#284 = AXIS2_PLACEMENT_3D ( 'NONE', #165, #4, #191 ) ;
#285 = DIRECTION ( 'NONE',  ( 0.0000000000000000000, -1.000000000000000000, -1.878145495644180800E-016 ) ) ;
#286 = DIRECTION ( 'NONE',  ( 1.000000000000000000, -0.0000000000000000000, 0.0000000000000000000 ) ) ;
#287 = COORDINATED_UNIVERSAL_TIME_OFFSET ( 5, 0, .BEHIND. ) ;
#288 = DIRECTION ( 'NONE',  ( 0.0000000000000000000, 1.836909530733602400E-016, -1.000000000000000000 ) ) ;
#289 = DIRECTION ( 'NONE',  ( 0.0000000000000000000, 0.6866800675350116500, -0.7269597546289009400 ) ) ;
#290 = DIRECTION ( 'NONE',  ( -1.000000000000000000, 1.224646799147353200E-016, 2.249565377136128000E-032 ) ) ;
#291 = ORIENTED_EDGE ( 'NONE', *, *, #247, .T. ) ;
#292 = LOCAL_TIME ( 11, 7, 22.00000000000000000, #23 ) ;
#293 = ADVANCED_FACE ( 'NONE', ( #79 ), #13, .T. ) ;
#294 = AXIS2_PLACEMENT_3D ( 'NONE', #163, #272, #307 ) ;
#295 = LINE ( 'NONE', #141, #105 ) ;
#296 = ORIENTED_EDGE ( 'NONE', *, *, #157, .T. ) ;
#297 = DIRECTION ( 'NONE',  ( 0.0000000000000000000, 1.836909530733602400E-016, -1.000000000000000000 ) ) ;
#298 = APPROVAL_DATE_TIME ( #30, #20 ) ;
#299 = DIRECTION ( 'NONE',  ( 1.000000000000000000, 0.0000000000000000000, 0.0000000000000000000 ) ) ;
#300 = APPLICATION_CONTEXT ( 'configuration controlled 3d designs of mechanical parts and assemblies' ) ;
#301 = ORIENTED_EDGE ( 'NONE', *, *, #7, .F. ) ;
#302 = PERSON_AND_ORGANIZATION_ROLE ( 'design_supplier' ) ;
#303 = APPROVAL_PERSON_ORGANIZATION ( #39, #20, #282 ) ;
#304 = DIRECTION ( 'NONE',  ( -0.0000000000000000000, -1.836909530733565900E-016, 1.000000000000000000 ) ) ;
#305 = DIRECTION ( 'NONE',  ( 0.0000000000000000000, -1.000000000000000000, -1.707404996040164500E-016 ) ) ;
#306 = CARTESIAN_POINT ( 'NONE',  ( 0.0000000000000000000, 0.0000000000000000000, 0.04645669291338581900 ) ) ;
#307 = DIRECTION ( 'NONE',  ( 0.0000000000000000000, 1.000000000000000000, 1.244432590662977400E-016 ) ) ;
#308 = AXIS2_PLACEMENT_3D ( 'NONE', #56, #110, #249 ) ;
#309 = CIRCLE ( 'NONE', #67, 0.2500000000000000000 ) ;
#310 = ORIENTED_EDGE ( 'NONE', *, *, #91, .T. ) ;
#311 = COORDINATED_UNIVERSAL_TIME_OFFSET ( 5, 0, .BEHIND. ) ;
#312 = LOCAL_TIME ( 11, 7, 22.00000000000000000, #50 ) ;
#313 = ADVANCED_FACE ( 'NONE', ( #230 ), #159, .T. ) ;
#314 = ORIENTED_EDGE ( 'NONE', *, *, #319, .F. ) ;
#315 = FACE_OUTER_BOUND ( 'NONE', #127, .T. ) ;
#316 = CC_DESIGN_APPROVAL ( #20, ( #250 ) ) ;
#317 = DIRECTION ( 'NONE',  ( 8.409405467450402100E-017, -0.6866800675350114300, -0.7269597546289011700 ) ) ;
#318 = DIRECTION ( 'NONE',  ( 0.0000000000000000000, -1.000000000000000000, -1.244432590662977400E-016 ) ) ;
#319 = EDGE_CURVE ( 'NONE', #36, #121, #235, .T. ) ;
#320 = ORIENTED_EDGE ( 'NONE', *, *, #149, .T. ) ;
#321 = ORGANIZATION ( 'UNSPECIFIED', 'UNSPECIFIED', '' ) ;
#322 = MECHANICAL_CONTEXT ( 'NONE', #300, 'mechanical' ) ;
#323 = PRODUCT ( 'TTN051881-E0W', 'TTN051881-E0W', '', ( #322 ) ) ;
#324 = PERSON_AND_ORGANIZATION_ROLE ( 'classification_officer' ) ;
#325 = AXIS2_PLACEMENT_3D ( 'NONE', #239, #148, #150 ) ;
#326 = AXIS2_PLACEMENT_3D ( 'NONE', #188, #54, #219 ) ;
#327 = DIRECTION ( 'NONE',  ( 0.0000000000000000000, -1.000000000000000000, -1.707404996040164500E-016 ) ) ;
#328 = MANIFOLD_SOLID_BREP ( 'TTN051882-1-solid1', #29 ) ;
#329 = CARTESIAN_POINT ( 'NONE',  ( 0.0000000000000000000, 8.052697830544067200E-016, -0.03977418638908741800 ) ) ;
#330 = ORIENTED_EDGE ( 'NONE', *, *, #231, .F. ) ;
ENDSEC;
END-ISO-10303-21;
