ISO-10303-21;
HEADER;
FILE_DESCRIPTION (( 'STEP AP203' ),
    '1' );
FILE_NAME ('Web Model 45567_20839.step',
    '2022-03-15T17:11:46',
    ( '' ),
    ( '' ),
    'SwSTEP 2.0',
    'SolidWorks 2021',
    '' );
FILE_SCHEMA (( 'CONFIG_CONTROL_DESIGN' ));
ENDSEC;

DATA;
#1 = FACE_OUTER_BOUND ( 'NONE', #30, .T. ) ;
#2 = VERTEX_POINT ( 'NONE', #27 ) ;
#3 = ORIENTED_EDGE ( 'NONE', *, *, #115, .F. ) ;
#4 = APPROVAL_DATE_TIME ( #128, #137 ) ;
#5 = PERSON_AND_ORGANIZATION ( #173, #72 ) ;
#6 = PERSON_AND_ORGANIZATION ( #173, #72 ) ;
#7 = PERSON_AND_ORGANIZATION ( #173, #72 ) ;
#8 = CLOSED_SHELL ( 'NONE', ( #73, #122, #32, #39 ) ) ;
#9 = CC_DESIGN_PERSON_AND_ORGANIZATION_ASSIGNMENT ( #166, #43, ( #45 ) ) ;
#10 = DESIGN_CONTEXT ( 'detailed design', #127, 'design' ) ;
#11 = DATE_AND_TIME ( #131, #75 ) ;
#12 = PRODUCT_RELATED_PRODUCT_CATEGORY ( 'detail', '', ( #50 ) ) ;
#13 = DIRECTION ( 'NONE',  ( 1.000000000000000000, 0.000000000000000000, -0.000000000000000000 ) ) ;
#14 = CC_DESIGN_SECURITY_CLASSIFICATION ( #103, ( #143 ) ) ;
#15 = PLANE ( 'NONE',  #21 ) ;
#16 = CARTESIAN_POINT ( 'NONE',  ( 0.000000000000000000, 0.000000000000000000, 0.000000000000000000 ) ) ;
#17 = ORIENTED_EDGE ( 'NONE', *, *, #142, .F. ) ;
#18 = UNCERTAINTY_MEASURE_WITH_UNIT (LENGTH_MEASURE( 1.000000000000000082E-05 ), #56, 'distance_accuracy_value', 'NONE');
#19 = CALENDAR_DATE ( 2022, 15, 3 ) ;
#20 =( NAMED_UNIT ( * ) PLANE_ANGLE_UNIT ( ) SI_UNIT ( $, .RADIAN. ) );
#21 = AXIS2_PLACEMENT_3D ( 'NONE', #175, #90, #13 ) ;
#22 = DATE_AND_TIME ( #34, #44 ) ;
#23 = APPROVAL_DATE_TIME ( #22, #61 ) ;
#24 = CALENDAR_DATE ( 2022, 15, 3 ) ;
#25 = VECTOR ( 'NONE', #148, 1000.000000000000000 ) ;
#26 = CARTESIAN_POINT ( 'NONE',  ( 3.175000000000001155, 3.888253587292847561E-16, 1.000000000000000000 ) ) ;
#27 = CARTESIAN_POINT ( 'NONE',  ( -3.175000000000001155, 0.000000000000000000, 0.000000000000000000 ) ) ;
#28 = DIRECTION ( 'NONE',  ( -1.000000000000000000, 0.000000000000000000, 0.000000000000000000 ) ) ;
#29 = LINE ( 'NONE', #82, #167 ) ;
#30 = EDGE_LOOP ( 'NONE', ( #106, #145, #52, #136 ) ) ;
#31 = PERSON_AND_ORGANIZATION ( #173, #72 ) ;
#32 = ADVANCED_FACE ( 'NONE', ( #37 ), #15, .T. ) ;
#33 = DATE_AND_TIME ( #19, #168 ) ;
#34 = CALENDAR_DATE ( 2022, 15, 3 ) ;
#35 = DIRECTION ( 'NONE',  ( 1.000000000000000000, 0.000000000000000000, 0.000000000000000000 ) ) ;
#36 = DIRECTION ( 'NONE',  ( -0.000000000000000000, -0.000000000000000000, -1.000000000000000000 ) ) ;
#37 = FACE_OUTER_BOUND ( 'NONE', #54, .T. ) ;
#38 = ORIENTED_EDGE ( 'NONE', *, *, #162, .F. ) ;
#39 = ADVANCED_FACE ( 'NONE', ( #105 ), #134, .F. ) ;
#40 = VERTEX_POINT ( 'NONE', #163 ) ;
#41 = LOCAL_TIME ( 13, 11, 46.00000000000000000, #57 ) ;
#42 = PERSON_AND_ORGANIZATION ( #173, #72 ) ;
#43 = PERSON_AND_ORGANIZATION_ROLE ( 'creator' ) ;
#44 = LOCAL_TIME ( 13, 11, 46.00000000000000000, #149 ) ;
#45 = PRODUCT_DEFINITION ( 'UNKNOWN', '', #143, #10 ) ;
#46 = PERSON_AND_ORGANIZATION ( #173, #72 ) ;
#47 = MANIFOLD_SOLID_BREP ( 'Boss-Extrude1', #8 ) ;
#48 = CC_DESIGN_PERSON_AND_ORGANIZATION_ASSIGNMENT ( #7, #126, ( #143 ) ) ;
#49 =( GEOMETRIC_REPRESENTATION_CONTEXT ( 3 ) GLOBAL_UNCERTAINTY_ASSIGNED_CONTEXT ( ( #18 ) ) GLOBAL_UNIT_ASSIGNED_CONTEXT ( ( #56, #20, #83 ) ) REPRESENTATION_CONTEXT ( 'NONE', 'WORKASPACE' ) );
#50 = PRODUCT ( 'Web Model 45567_20839', 'Web Model 45567_20839', '', ( #84 ) ) ;
#51 = SHAPE_DEFINITION_REPRESENTATION ( #60, #155 ) ;
#52 = ORIENTED_EDGE ( 'NONE', *, *, #162, .T. ) ;
#53 = ORIENTED_EDGE ( 'NONE', *, *, #115, .T. ) ;
#54 = EDGE_LOOP ( 'NONE', ( #161, #53 ) ) ;
#55 = VERTEX_POINT ( 'NONE', #26 ) ;
#56 =( LENGTH_UNIT ( ) NAMED_UNIT ( * ) SI_UNIT ( .MILLI., .METRE. ) );
#57 = COORDINATED_UNIVERSAL_TIME_OFFSET ( 5, 0, .BEHIND. ) ;
#58 = PERSON_AND_ORGANIZATION_ROLE ( 'design_supplier' ) ;
#59 = CARTESIAN_POINT ( 'NONE',  ( 0.000000000000000000, 0.000000000000000000, 0.000000000000000000 ) ) ;
#60 = PRODUCT_DEFINITION_SHAPE ( 'NONE', 'NONE',  #45 ) ;
#61 = APPROVAL ( #172, 'UNSPECIFIED' ) ;
#62 = CARTESIAN_POINT ( 'NONE',  ( 0.000000000000000000, 0.000000000000000000, 1.000000000000000000 ) ) ;
#63 = CYLINDRICAL_SURFACE ( 'NONE', #129, 3.175000000000001155 ) ;
#64 = CARTESIAN_POINT ( 'NONE',  ( 0.000000000000000000, 0.000000000000000000, 0.000000000000000000 ) ) ;
#65 = CARTESIAN_POINT ( 'NONE',  ( 0.000000000000000000, 0.000000000000000000, 1.000000000000000000 ) ) ;
#66 = AXIS2_PLACEMENT_3D ( 'NONE', #118, #160, #78 ) ;
#67 = DIRECTION ( 'NONE',  ( -0.000000000000000000, -0.000000000000000000, -1.000000000000000000 ) ) ;
#68 = CC_DESIGN_PERSON_AND_ORGANIZATION_ASSIGNMENT ( #5, #139, ( #50 ) ) ;
#69 = APPLICATION_PROTOCOL_DEFINITION ( 'international standard', 'config_control_design', 1994, #127 ) ;
#70 = AXIS2_PLACEMENT_3D ( 'NONE', #59, #141, #125 ) ;
#71 = APPROVAL_STATUS ( 'not_yet_approved' ) ;
#72 = ORGANIZATION ( 'UNSPECIFIED', 'UNSPECIFIED', '' ) ;
#73 = ADVANCED_FACE ( 'NONE', ( #76 ), #138, .T. ) ;
#74 = DATE_TIME_ROLE ( 'classification_date' ) ;
#75 = LOCAL_TIME ( 13, 11, 46.00000000000000000, #86 ) ;
#76 = FACE_OUTER_BOUND ( 'NONE', #81, .T. ) ;
#77 = AXIS2_PLACEMENT_3D ( 'NONE', #16, #108, #35 ) ;
#78 = DIRECTION ( 'NONE',  ( 1.000000000000000000, 0.000000000000000000, 0.000000000000000000 ) ) ;
#79 = CARTESIAN_POINT ( 'NONE',  ( 0.000000000000000000, 0.000000000000000000, 1.000000000000000000 ) ) ;
#80 = CC_DESIGN_PERSON_AND_ORGANIZATION_ASSIGNMENT ( #6, #58, ( #143 ) ) ;
#81 = EDGE_LOOP ( 'NONE', ( #3, #159, #147, #38 ) ) ;
#82 = CARTESIAN_POINT ( 'NONE',  ( 3.175000000000001155, 3.888253587292847561E-16, 1.000000000000000000 ) ) ;
#83 =( NAMED_UNIT ( * ) SI_UNIT ( $, .STERADIAN. ) SOLID_ANGLE_UNIT ( ) );
#84 = MECHANICAL_CONTEXT ( 'NONE', #95, 'mechanical' ) ;
#85 = APPROVAL ( #96, 'UNSPECIFIED' ) ;
#86 = COORDINATED_UNIVERSAL_TIME_OFFSET ( 5, 0, .BEHIND. ) ;
#87 = CC_DESIGN_APPROVAL ( #85, ( #103 ) ) ;
#88 = DIRECTION ( 'NONE',  ( 1.000000000000000000, 0.000000000000000000, 0.000000000000000000 ) ) ;
#89 = LINE ( 'NONE', #92, #25 ) ;
#90 = DIRECTION ( 'NONE',  ( 0.000000000000000000, 0.000000000000000000, 1.000000000000000000 ) ) ;
#91 = VERTEX_POINT ( 'NONE', #93 ) ;
#92 = CARTESIAN_POINT ( 'NONE',  ( -3.175000000000001155, 0.000000000000000000, 1.000000000000000000 ) ) ;
#93 = CARTESIAN_POINT ( 'NONE',  ( 3.175000000000001155, 3.888253587292847561E-16, 0.000000000000000000 ) ) ;
#94 = AXIS2_PLACEMENT_3D ( 'NONE', #62, #156, #135 ) ;
#95 = APPLICATION_CONTEXT ( 'configuration controlled 3d designs of mechanical parts and assemblies' ) ;
#96 = APPROVAL_STATUS ( 'not_yet_approved' ) ;
#97 = CIRCLE ( 'NONE', #77, 3.175000000000001155 ) ;
#98 = SECURITY_CLASSIFICATION_LEVEL ( 'unclassified' ) ;
#99 = LOCAL_TIME ( 13, 11, 46.00000000000000000, #140 ) ;
#100 = CC_DESIGN_DATE_AND_TIME_ASSIGNMENT ( #110, #74, ( #103 ) ) ;
#101 = PERSON_AND_ORGANIZATION_ROLE ( 'classification_officer' ) ;
#102 = CIRCLE ( 'NONE', #158, 3.175000000000001155 ) ;
#103 = SECURITY_CLASSIFICATION ( '', '', #98 ) ;
#104 = AXIS2_PLACEMENT_3D ( 'NONE', #109, #146, #174 ) ;
#105 = FACE_OUTER_BOUND ( 'NONE', #121, .T. ) ;
#106 = ORIENTED_EDGE ( 'NONE', *, *, #170, .F. ) ;
#107 = EDGE_CURVE ( 'NONE', #91, #2, #120, .T. ) ;
#108 = DIRECTION ( 'NONE',  ( 0.000000000000000000, 0.000000000000000000, 1.000000000000000000 ) ) ;
#109 = CARTESIAN_POINT ( 'NONE',  ( 0.000000000000000000, 0.000000000000000000, 1.000000000000000000 ) ) ;
#110 = DATE_AND_TIME ( #153, #41 ) ;
#111 = APPROVAL_ROLE ( '' ) ;
#112 = AXIS2_PLACEMENT_3D ( 'NONE', #64, #119, #157 ) ;
#113 = PERSON_AND_ORGANIZATION ( #173, #72 ) ;
#114 = CC_DESIGN_PERSON_AND_ORGANIZATION_ASSIGNMENT ( #46, #101, ( #103 ) ) ;
#115 = EDGE_CURVE ( 'NONE', #55, #40, #130, .T. ) ;
#116 = APPROVAL_PERSON_ORGANIZATION ( #42, #85, #152 ) ;
#117 = DIRECTION ( 'NONE',  ( 0.000000000000000000, 0.000000000000000000, 1.000000000000000000 ) ) ;
#118 = CARTESIAN_POINT ( 'NONE',  ( 0.000000000000000000, 0.000000000000000000, 0.000000000000000000 ) ) ;
#119 = DIRECTION ( 'NONE',  ( 0.000000000000000000, 0.000000000000000000, 1.000000000000000000 ) ) ;
#120 = CIRCLE ( 'NONE', #66, 3.175000000000001155 ) ;
#121 = EDGE_LOOP ( 'NONE', ( #17, #133 ) ) ;
#122 = ADVANCED_FACE ( 'NONE', ( #1 ), #63, .T. ) ;
#123 = APPROVAL_ROLE ( '' ) ;
#124 = APPROVAL_PERSON_ORGANIZATION ( #31, #137, #123 ) ;
#125 = DIRECTION ( 'NONE',  ( 1.000000000000000000, 0.000000000000000000, 0.000000000000000000 ) ) ;
#126 = PERSON_AND_ORGANIZATION_ROLE ( 'creator' ) ;
#127 = APPLICATION_CONTEXT ( 'configuration controlled 3d designs of mechanical parts and assemblies' ) ;
#128 = DATE_AND_TIME ( #24, #99 ) ;
#129 = AXIS2_PLACEMENT_3D ( 'NONE', #79, #36, #28 ) ;
#130 = CIRCLE ( 'NONE', #94, 3.175000000000001155 ) ;
#131 = CALENDAR_DATE ( 2022, 15, 3 ) ;
#132 = CC_DESIGN_DATE_AND_TIME_ASSIGNMENT ( #33, #165, ( #45 ) ) ;
#133 = ORIENTED_EDGE ( 'NONE', *, *, #107, .F. ) ;
#134 = PLANE ( 'NONE',  #112 ) ;
#135 = DIRECTION ( 'NONE',  ( 1.000000000000000000, 0.000000000000000000, 0.000000000000000000 ) ) ;
#136 = ORIENTED_EDGE ( 'NONE', *, *, #142, .T. ) ;
#137 = APPROVAL ( #71, 'UNSPECIFIED' ) ;
#138 = CYLINDRICAL_SURFACE ( 'NONE', #104, 3.175000000000001155 ) ;
#139 = PERSON_AND_ORGANIZATION_ROLE ( 'design_owner' ) ;
#140 = COORDINATED_UNIVERSAL_TIME_OFFSET ( 5, 0, .BEHIND. ) ;
#141 = DIRECTION ( 'NONE',  ( 0.000000000000000000, 0.000000000000000000, 1.000000000000000000 ) ) ;
#142 = EDGE_CURVE ( 'NONE', #2, #91, #97, .T. ) ;
#143 = PRODUCT_DEFINITION_FORMATION_WITH_SPECIFIED_SOURCE ( 'ANY', '', #50, .NOT_KNOWN. ) ;
#144 = APPROVAL_DATE_TIME ( #11, #85 ) ;
#145 = ORIENTED_EDGE ( 'NONE', *, *, #154, .F. ) ;
#146 = DIRECTION ( 'NONE',  ( -0.000000000000000000, -0.000000000000000000, -1.000000000000000000 ) ) ;
#147 = ORIENTED_EDGE ( 'NONE', *, *, #107, .T. ) ;
#148 = DIRECTION ( 'NONE',  ( -0.000000000000000000, -0.000000000000000000, -1.000000000000000000 ) ) ;
#149 = COORDINATED_UNIVERSAL_TIME_OFFSET ( 5, 0, .BEHIND. ) ;
#150 = COORDINATED_UNIVERSAL_TIME_OFFSET ( 5, 0, .BEHIND. ) ;
#151 = CC_DESIGN_APPROVAL ( #61, ( #45 ) ) ;
#152 = APPROVAL_ROLE ( '' ) ;
#153 = CALENDAR_DATE ( 2022, 15, 3 ) ;
#154 = EDGE_CURVE ( 'NONE', #40, #55, #102, .T. ) ;
#155 = ADVANCED_BREP_SHAPE_REPRESENTATION ( 'Web Model 45567_20839', ( #47, #70 ), #49 ) ;
#156 = DIRECTION ( 'NONE',  ( 0.000000000000000000, 0.000000000000000000, 1.000000000000000000 ) ) ;
#157 = DIRECTION ( 'NONE',  ( 1.000000000000000000, 0.000000000000000000, -0.000000000000000000 ) ) ;
#158 = AXIS2_PLACEMENT_3D ( 'NONE', #65, #117, #88 ) ;
#159 = ORIENTED_EDGE ( 'NONE', *, *, #170, .T. ) ;
#160 = DIRECTION ( 'NONE',  ( 0.000000000000000000, 0.000000000000000000, 1.000000000000000000 ) ) ;
#161 = ORIENTED_EDGE ( 'NONE', *, *, #154, .T. ) ;
#162 = EDGE_CURVE ( 'NONE', #40, #2, #89, .T. ) ;
#163 = CARTESIAN_POINT ( 'NONE',  ( -3.175000000000001155, 0.000000000000000000, 1.000000000000000000 ) ) ;
#164 = APPROVAL_PERSON_ORGANIZATION ( #113, #61, #111 ) ;
#165 = DATE_TIME_ROLE ( 'creation_date' ) ;
#166 = PERSON_AND_ORGANIZATION ( #173, #72 ) ;
#167 = VECTOR ( 'NONE', #67, 1000.000000000000000 ) ;
#168 = LOCAL_TIME ( 13, 11, 46.00000000000000000, #150 ) ;
#169 = APPLICATION_PROTOCOL_DEFINITION ( 'international standard', 'config_control_design', 1994, #95 ) ;
#170 = EDGE_CURVE ( 'NONE', #55, #91, #29, .T. ) ;
#171 = CC_DESIGN_APPROVAL ( #137, ( #143 ) ) ;
#172 = APPROVAL_STATUS ( 'not_yet_approved' ) ;
#173 = PERSON ( 'UNSPECIFIED', 'UNSPECIFIED', 'UNSPECIFIED', ('UNSPECIFIED'), ('UNSPECIFIED'), ('UNSPECIFIED') ) ;
#174 = DIRECTION ( 'NONE',  ( -1.000000000000000000, 0.000000000000000000, 0.000000000000000000 ) ) ;
#175 = CARTESIAN_POINT ( 'NONE',  ( 0.000000000000000000, 0.000000000000000000, 1.000000000000000000 ) ) ;
ENDSEC;
END-ISO-10303-21;
