ISO-10303-21;
HEADER;
FILE_DESCRIPTION (( 'STEP AP203' ),
    '1' );
FILE_NAME ('Web Model 84459_48062.step',
    '2017-04-03T16:41:12',
    ( '' ),
    ( '' ),
    'SwSTEP 2.0',
    'SolidWorks 2016',
    '' );
FILE_SCHEMA (( 'CONFIG_CONTROL_DESIGN' ));
ENDSEC;

DATA;
#1 = EDGE_CURVE ( 'NONE', #130, #127, #169, .T. ) ;
#2 = DIRECTION ( 'NONE',  ( 1.000000000000000000, 0.0000000000000000000, 0.0000000000000000000 ) ) ;
#3 = AXIS2_PLACEMENT_3D ( 'NONE', #149, #136, #128 ) ;
#4 = EDGE_CURVE ( 'NONE', #130, #24, #103, .T. ) ;
#5 = EDGE_CURVE ( 'NONE', #24, #160, #85, .T. ) ;
#6 = ORIENTED_EDGE ( 'NONE', *, *, #4, .T. ) ;
#7 = EDGE_CURVE ( 'NONE', #24, #130, #33, .T. ) ;
#8 = ADVANCED_FACE ( 'NONE', ( #145 ), #113, .T. ) ;
#9 = CC_DESIGN_PERSON_AND_ORGANIZATION_ASSIGNMENT ( #83, #108, ( #30 ) ) ;
#10 = ORIENTED_EDGE ( 'NONE', *, *, #120, .F. ) ;
#11 = SHAPE_DEFINITION_REPRESENTATION ( #51, #111 ) ;
#12 = APPROVAL_PERSON_ORGANIZATION ( #63, #58, #75 ) ;
#13 = EDGE_CURVE ( 'NONE', #160, #127, #43, .T. ) ;
#14 = AXIS2_PLACEMENT_3D ( 'NONE', #143, #131, #119 ) ;
#15 = APPROVAL_ROLE ( '' ) ;
#16 = UNCERTAINTY_MEASURE_WITH_UNIT (LENGTH_MEASURE( 1.000000000000000100E-005 ), #89, 'distance_accuracy_value', 'NONE');
#17 = DATE_TIME_ROLE ( 'creation_date' ) ;
#18 = CARTESIAN_POINT ( 'NONE',  ( -2.500000000000000000, 3.061616997868383100E-016, -1.000000000000000000 ) ) ;
#19 = APPLICATION_PROTOCOL_DEFINITION ( 'international standard', 'config_control_design', 1994, #40 ) ;
#20 = CARTESIAN_POINT ( 'NONE',  ( 0.0000000000000000000, 0.0000000000000000000, -1.000000000000000000 ) ) ;
#21 = COORDINATED_UNIVERSAL_TIME_OFFSET ( 5, 0, .BEHIND. ) ;
#22 = APPROVAL ( #105, 'UNSPECIFIED' ) ;
#23 = CARTESIAN_POINT ( 'NONE',  ( 0.0000000000000000000, 0.0000000000000000000, -1.000000000000000000 ) ) ;
#24 = VERTEX_POINT ( 'NONE', #18 ) ;
#25 = APPROVAL_STATUS ( 'not_yet_approved' ) ;
#26 = DATE_AND_TIME ( #137, #99 ) ;
#27 = DATE_TIME_ROLE ( 'classification_date' ) ;
#28 = CARTESIAN_POINT ( 'NONE',  ( 0.0000000000000000000, 0.0000000000000000000, 0.0000000000000000000 ) ) ;
#29 = APPROVAL_DATE_TIME ( #124, #22 ) ;
#30 = PRODUCT_DEFINITION_FORMATION_WITH_SPECIFIED_SOURCE ( 'ANY', '', #80, .NOT_KNOWN. ) ;
#31 = CALENDAR_DATE ( 2017, 3, 4 ) ;
#32 = PERSON_AND_ORGANIZATION ( #62, #154 ) ;
#33 = CIRCLE ( 'NONE', #3, 2.500000000000000000 ) ;
#34 = CARTESIAN_POINT ( 'NONE',  ( 0.0000000000000000000, 0.0000000000000000000, -1.000000000000000000 ) ) ;
#35 = APPROVAL_DATE_TIME ( #87, #58 ) ;
#36 = CARTESIAN_POINT ( 'NONE',  ( -2.500000000000000000, 3.061616997868383100E-016, -1.000000000000000000 ) ) ;
#37 = ORIENTED_EDGE ( 'NONE', *, *, #13, .T. ) ;
#38 = SECURITY_CLASSIFICATION_LEVEL ( 'unclassified' ) ;
#39 = DIRECTION ( 'NONE',  ( 0.0000000000000000000, 0.0000000000000000000, 1.000000000000000000 ) ) ;
#40 = APPLICATION_CONTEXT ( 'configuration controlled 3d designs of mechanical parts and assemblies' ) ;
#41 = CC_DESIGN_PERSON_AND_ORGANIZATION_ASSIGNMENT ( #104, #77, ( #90 ) ) ;
#42 = CALENDAR_DATE ( 2017, 3, 4 ) ;
#43 = CIRCLE ( 'NONE', #14, 2.500000000000000000 ) ;
#44 = APPLICATION_CONTEXT ( 'configuration controlled 3d designs of mechanical parts and assemblies' ) ;
#45 = CC_DESIGN_APPROVAL ( #58, ( #106 ) ) ;
#46 = ORIENTED_EDGE ( 'NONE', *, *, #1, .F. ) ;
#47 = CARTESIAN_POINT ( 'NONE',  ( 0.0000000000000000000, 0.0000000000000000000, 0.0000000000000000000 ) ) ;
#48 = ADVANCED_FACE ( 'NONE', ( #148 ), #86, .T. ) ;
#49 = CC_DESIGN_APPROVAL ( #22, ( #30 ) ) ;
#50 = PLANE ( 'NONE',  #141 ) ;
#51 = PRODUCT_DEFINITION_SHAPE ( 'NONE', 'NONE',  #90 ) ;
#52 = CC_DESIGN_PERSON_AND_ORGANIZATION_ASSIGNMENT ( #116, #146, ( #106 ) ) ;
#53 = DIRECTION ( 'NONE',  ( 0.0000000000000000000, 0.0000000000000000000, 1.000000000000000000 ) ) ;
#54 = ADVANCED_FACE ( 'NONE', ( #174 ), #71, .T. ) ;
#55 = CC_DESIGN_DATE_AND_TIME_ASSIGNMENT ( #26, #17, ( #90 ) ) ;
#56 = APPROVAL_DATE_TIME ( #93, #81 ) ;
#57 = ORIENTED_EDGE ( 'NONE', *, *, #7, .F. ) ;
#58 = APPROVAL ( #25, 'UNSPECIFIED' ) ;
#59 = CC_DESIGN_SECURITY_CLASSIFICATION ( #106, ( #30 ) ) ;
#60 = VECTOR ( 'NONE', #53, 1000.000000000000000 ) ;
#61 = COORDINATED_UNIVERSAL_TIME_OFFSET ( 5, 0, .BEHIND. ) ;
#62 = PERSON ( 'UNSPECIFIED', 'UNSPECIFIED', 'UNSPECIFIED', ('UNSPECIFIED'), ('UNSPECIFIED'), ('UNSPECIFIED') ) ;
#63 = PERSON_AND_ORGANIZATION ( #62, #154 ) ;
#64 = EDGE_LOOP ( 'NONE', ( #121, #37 ) ) ;
#65 =( GEOMETRIC_REPRESENTATION_CONTEXT ( 3 ) GLOBAL_UNCERTAINTY_ASSIGNED_CONTEXT ( ( #16 ) ) GLOBAL_UNIT_ASSIGNED_CONTEXT ( ( #89, #102, #173 ) ) REPRESENTATION_CONTEXT ( 'NONE', 'WORKASPACE' ) );
#66 = CC_DESIGN_APPROVAL ( #81, ( #90 ) ) ;
#67 = DIRECTION ( 'NONE',  ( 0.0000000000000000000, 0.0000000000000000000, 1.000000000000000000 ) ) ;
#68 = LOCAL_TIME ( 12, 41, 12.00000000000000000, #21 ) ;
#69 = MECHANICAL_CONTEXT ( 'NONE', #44, 'mechanical' ) ;
#70 = PRODUCT_RELATED_PRODUCT_CATEGORY ( 'detail', '', ( #80 ) ) ;
#71 = CYLINDRICAL_SURFACE ( 'NONE', #117, 2.500000000000000000 ) ;
#72 = APPROVAL_STATUS ( 'not_yet_approved' ) ;
#73 = ORIENTED_EDGE ( 'NONE', *, *, #7, .T. ) ;
#74 = FACE_OUTER_BOUND ( 'NONE', #118, .T. ) ;
#75 = APPROVAL_ROLE ( '' ) ;
#76 = COORDINATED_UNIVERSAL_TIME_OFFSET ( 5, 0, .BEHIND. ) ;
#77 = PERSON_AND_ORGANIZATION_ROLE ( 'creator' ) ;
#78 = DIRECTION ( 'NONE',  ( 1.000000000000000000, 0.0000000000000000000, -0.0000000000000000000 ) ) ;
#79 = DIRECTION ( 'NONE',  ( 1.000000000000000000, 0.0000000000000000000, 0.0000000000000000000 ) ) ;
#80 = PRODUCT ( 'Web Model 84459_48062', 'Web Model 84459_48062', '', ( #69 ) ) ;
#81 = APPROVAL ( #72, 'UNSPECIFIED' ) ;
#82 = ORIENTED_EDGE ( 'NONE', *, *, #5, .T. ) ;
#83 = PERSON_AND_ORGANIZATION ( #62, #154 ) ;
#84 = APPROVAL_PERSON_ORGANIZATION ( #32, #81, #168 ) ;
#85 = LINE ( 'NONE', #36, #60 ) ;
#86 = PLANE ( 'NONE',  #107 ) ;
#87 = DATE_AND_TIME ( #31, #161 ) ;
#88 = VECTOR ( 'NONE', #139, 1000.000000000000000 ) ;
#89 =( LENGTH_UNIT ( ) NAMED_UNIT ( * ) SI_UNIT ( .MILLI., .METRE. ) );
#90 = PRODUCT_DEFINITION ( 'UNKNOWN', '', #30, #132 ) ;
#91 = LOCAL_TIME ( 12, 41, 12.00000000000000000, #76 ) ;
#92 = DIRECTION ( 'NONE',  ( 0.0000000000000000000, 0.0000000000000000000, 1.000000000000000000 ) ) ;
#93 = DATE_AND_TIME ( #42, #114 ) ;
#94 = DIRECTION ( 'NONE',  ( 0.0000000000000000000, 0.0000000000000000000, 1.000000000000000000 ) ) ;
#95 = DIRECTION ( 'NONE',  ( 1.000000000000000000, 0.0000000000000000000, -0.0000000000000000000 ) ) ;
#96 = AXIS2_PLACEMENT_3D ( 'NONE', #28, #94, #126 ) ;
#97 = EDGE_LOOP ( 'NONE', ( #6, #82, #10, #46 ) ) ;
#98 = CARTESIAN_POINT ( 'NONE',  ( 2.500000000000000000, 0.0000000000000000000, -1.000000000000000000 ) ) ;
#99 = LOCAL_TIME ( 12, 41, 12.00000000000000000, #61 ) ;
#100 = EDGE_LOOP ( 'NONE', ( #109, #73, #153, #147 ) ) ;
#101 = CARTESIAN_POINT ( 'NONE',  ( -2.500000000000000000, 3.061616997868383100E-016, 0.0000000000000000000 ) ) ;
#102 =( NAMED_UNIT ( * ) PLANE_ANGLE_UNIT ( ) SI_UNIT ( $, .RADIAN. ) );
#103 = CIRCLE ( 'NONE', #170, 2.500000000000000000 ) ;
#104 = PERSON_AND_ORGANIZATION ( #62, #154 ) ;
#105 = APPROVAL_STATUS ( 'not_yet_approved' ) ;
#106 = SECURITY_CLASSIFICATION ( '', '', #38 ) ;
#107 = AXIS2_PLACEMENT_3D ( 'NONE', #47, #92, #78 ) ;
#108 = PERSON_AND_ORGANIZATION_ROLE ( 'creator' ) ;
#109 = ORIENTED_EDGE ( 'NONE', *, *, #5, .F. ) ;
#110 = DATE_AND_TIME ( #129, #91 ) ;
#111 = ADVANCED_BREP_SHAPE_REPRESENTATION ( 'Web Model 84459_48062', ( #133, #175 ), #65 ) ;
#112 = CC_DESIGN_PERSON_AND_ORGANIZATION_ASSIGNMENT ( #122, #144, ( #30 ) ) ;
#113 = CYLINDRICAL_SURFACE ( 'NONE', #125, 2.500000000000000000 ) ;
#114 = LOCAL_TIME ( 12, 41, 12.00000000000000000, #150 ) ;
#115 = DIRECTION ( 'NONE',  ( 1.000000000000000000, 0.0000000000000000000, 0.0000000000000000000 ) ) ;
#116 = PERSON_AND_ORGANIZATION ( #62, #154 ) ;
#117 = AXIS2_PLACEMENT_3D ( 'NONE', #23, #39, #79 ) ;
#118 = EDGE_LOOP ( 'NONE', ( #166, #57 ) ) ;
#119 = DIRECTION ( 'NONE',  ( 1.000000000000000000, 0.0000000000000000000, 0.0000000000000000000 ) ) ;
#120 = EDGE_CURVE ( 'NONE', #127, #160, #138, .T. ) ;
#121 = ORIENTED_EDGE ( 'NONE', *, *, #120, .T. ) ;
#122 = PERSON_AND_ORGANIZATION ( #62, #154 ) ;
#123 = DIRECTION ( 'NONE',  ( 0.0000000000000000000, 0.0000000000000000000, 1.000000000000000000 ) ) ;
#124 = DATE_AND_TIME ( #155, #68 ) ;
#125 = AXIS2_PLACEMENT_3D ( 'NONE', #34, #165, #115 ) ;
#126 = DIRECTION ( 'NONE',  ( 1.000000000000000000, 0.0000000000000000000, 0.0000000000000000000 ) ) ;
#127 = VERTEX_POINT ( 'NONE', #158 ) ;
#128 = DIRECTION ( 'NONE',  ( 1.000000000000000000, 0.0000000000000000000, 0.0000000000000000000 ) ) ;
#129 = CALENDAR_DATE ( 2017, 3, 4 ) ;
#130 = VERTEX_POINT ( 'NONE', #140 ) ;
#131 = DIRECTION ( 'NONE',  ( 0.0000000000000000000, 0.0000000000000000000, 1.000000000000000000 ) ) ;
#132 = DESIGN_CONTEXT ( 'detailed design', #40, 'design' ) ;
#133 = MANIFOLD_SOLID_BREP ( 'Extrude1', #172 ) ;
#134 = PERSON_AND_ORGANIZATION_ROLE ( 'design_owner' ) ;
#135 = COORDINATED_UNIVERSAL_TIME_OFFSET ( 5, 0, .BEHIND. ) ;
#136 = DIRECTION ( 'NONE',  ( 0.0000000000000000000, 0.0000000000000000000, 1.000000000000000000 ) ) ;
#137 = CALENDAR_DATE ( 2017, 3, 4 ) ;
#138 = CIRCLE ( 'NONE', #96, 2.500000000000000000 ) ;
#139 = DIRECTION ( 'NONE',  ( 0.0000000000000000000, 0.0000000000000000000, 1.000000000000000000 ) ) ;
#140 = CARTESIAN_POINT ( 'NONE',  ( 2.500000000000000000, 0.0000000000000000000, -1.000000000000000000 ) ) ;
#141 = AXIS2_PLACEMENT_3D ( 'NONE', #164, #67, #95 ) ;
#142 = CC_DESIGN_DATE_AND_TIME_ASSIGNMENT ( #110, #27, ( #106 ) ) ;
#143 = CARTESIAN_POINT ( 'NONE',  ( 0.0000000000000000000, 0.0000000000000000000, 0.0000000000000000000 ) ) ;
#144 = PERSON_AND_ORGANIZATION_ROLE ( 'design_supplier' ) ;
#145 = FACE_OUTER_BOUND ( 'NONE', #100, .T. ) ;
#146 = PERSON_AND_ORGANIZATION_ROLE ( 'classification_officer' ) ;
#147 = ORIENTED_EDGE ( 'NONE', *, *, #13, .F. ) ;
#148 = FACE_OUTER_BOUND ( 'NONE', #64, .T. ) ;
#149 = CARTESIAN_POINT ( 'NONE',  ( 0.0000000000000000000, 0.0000000000000000000, -1.000000000000000000 ) ) ;
#150 = COORDINATED_UNIVERSAL_TIME_OFFSET ( 5, 0, .BEHIND. ) ;
#151 = CC_DESIGN_PERSON_AND_ORGANIZATION_ASSIGNMENT ( #163, #134, ( #80 ) ) ;
#152 = ADVANCED_FACE ( 'NONE', ( #74 ), #50, .F. ) ;
#153 = ORIENTED_EDGE ( 'NONE', *, *, #1, .T. ) ;
#154 = ORGANIZATION ( 'UNSPECIFIED', 'UNSPECIFIED', '' ) ;
#155 = CALENDAR_DATE ( 2017, 3, 4 ) ;
#156 = DIRECTION ( 'NONE',  ( 1.000000000000000000, 0.0000000000000000000, 0.0000000000000000000 ) ) ;
#157 = APPROVAL_PERSON_ORGANIZATION ( #159, #22, #15 ) ;
#158 = CARTESIAN_POINT ( 'NONE',  ( 2.500000000000000000, 0.0000000000000000000, 0.0000000000000000000 ) ) ;
#159 = PERSON_AND_ORGANIZATION ( #62, #154 ) ;
#160 = VERTEX_POINT ( 'NONE', #101 ) ;
#161 = LOCAL_TIME ( 12, 41, 12.00000000000000000, #135 ) ;
#162 = CARTESIAN_POINT ( 'NONE',  ( 0.0000000000000000000, 0.0000000000000000000, 0.0000000000000000000 ) ) ;
#163 = PERSON_AND_ORGANIZATION ( #62, #154 ) ;
#164 = CARTESIAN_POINT ( 'NONE',  ( 0.0000000000000000000, 0.0000000000000000000, -1.000000000000000000 ) ) ;
#165 = DIRECTION ( 'NONE',  ( 0.0000000000000000000, 0.0000000000000000000, 1.000000000000000000 ) ) ;
#166 = ORIENTED_EDGE ( 'NONE', *, *, #4, .F. ) ;
#167 = DIRECTION ( 'NONE',  ( 0.0000000000000000000, 0.0000000000000000000, 1.000000000000000000 ) ) ;
#168 = APPROVAL_ROLE ( '' ) ;
#169 = LINE ( 'NONE', #98, #88 ) ;
#170 = AXIS2_PLACEMENT_3D ( 'NONE', #20, #167, #156 ) ;
#171 = APPLICATION_PROTOCOL_DEFINITION ( 'international standard', 'config_control_design', 1994, #44 ) ;
#172 = CLOSED_SHELL ( 'NONE', ( #54, #8, #152, #48 ) ) ;
#173 =( NAMED_UNIT ( * ) SI_UNIT ( $, .STERADIAN. ) SOLID_ANGLE_UNIT ( ) );
#174 = FACE_OUTER_BOUND ( 'NONE', #97, .T. ) ;
#175 = AXIS2_PLACEMENT_3D ( 'NONE', #162, #123, #2 ) ;
ENDSEC;
END-ISO-10303-21;
