ISO-10303-21;
HEADER;
FILE_DESCRIPTION (( 'STEP AP203' ),
    '1' );
FILE_NAME ('Web Model 37689_11548.step',
    '2019-01-09T20:26:24',
    ( '' ),
    ( '' ),
    'SwSTEP 2.0',
    'SolidWorks 2016',
    '' );
FILE_SCHEMA (( 'CONFIG_CONTROL_DESIGN' ));
ENDSEC;

DATA;
#1 = APPROVAL ( #75, 'UNSPECIFIED' ) ;
#2 = DATE_TIME_ROLE ( 'classification_date' ) ;
#3 = CC_DESIGN_PERSON_AND_ORGANIZATION_ASSIGNMENT ( #86, #36, ( #19 ) ) ;
#4 = CYLINDRICAL_SURFACE ( 'NONE', #124, 12.69999999999999900 ) ;
#5 = CARTESIAN_POINT ( 'NONE',  ( 0.0000000000000000000, 0.0000000000000000000, 3.174999999999999800 ) ) ;
#6 = ORIENTED_EDGE ( 'NONE', *, *, #166, .T. ) ;
#7 = ADVANCED_FACE ( 'NONE', ( #74 ), #146, .T. ) ;
#8 = PERSON_AND_ORGANIZATION_ROLE ( 'design_owner' ) ;
#9 = APPROVAL_DATE_TIME ( #46, #14 ) ;
#10 = EDGE_LOOP ( 'NONE', ( #148, #61, #56, #17 ) ) ;
#11 = CARTESIAN_POINT ( 'NONE',  ( -12.69999999999999900, 0.0000000000000000000, 3.174999999999999800 ) ) ;
#12 = ORGANIZATION ( 'UNSPECIFIED', 'UNSPECIFIED', '' ) ;
#13 = EDGE_LOOP ( 'NONE', ( #43, #102, #119, #83 ) ) ;
#14 = APPROVAL ( #113, 'UNSPECIFIED' ) ;
#15 = ADVANCED_BREP_SHAPE_REPRESENTATION ( 'Web Model 37689_11548', ( #139, #52 ), #55 ) ;
#16 = SECURITY_CLASSIFICATION ( '', '', #132 ) ;
#17 = ORIENTED_EDGE ( 'NONE', *, *, #158, .F. ) ;
#18 = CARTESIAN_POINT ( 'NONE',  ( 0.0000000000000000000, 0.0000000000000000000, -3.174999999999999800 ) ) ;
#19 = PRODUCT_DEFINITION ( 'UNKNOWN', '', #130, #58 ) ;
#20 = APPROVAL_DATE_TIME ( #118, #112 ) ;
#21 = APPROVAL_PERSON_ORGANIZATION ( #134, #14, #93 ) ;
#22 = CIRCLE ( 'NONE', #82, 12.69999999999999900 ) ;
#23 = APPLICATION_CONTEXT ( 'configuration controlled 3d designs of mechanical parts and assemblies' ) ;
#24 = APPROVAL_DATE_TIME ( #89, #1 ) ;
#25 = EDGE_CURVE ( 'NONE', #173, #71, #92, .T. ) ;
#26 = LINE ( 'NONE', #91, #98 ) ;
#27 = CC_DESIGN_PERSON_AND_ORGANIZATION_ASSIGNMENT ( #99, #122, ( #130 ) ) ;
#28 = ADVANCED_FACE ( 'NONE', ( #94 ), #128, .T. ) ;
#29 = CALENDAR_DATE ( 2019, 9, 1 ) ;
#30 = PERSON_AND_ORGANIZATION_ROLE ( 'creator' ) ;
#31 = EDGE_CURVE ( 'NONE', #163, #173, #26, .T. ) ;
#32 = PERSON_AND_ORGANIZATION ( #141, #12 ) ;
#33 = DATE_TIME_ROLE ( 'creation_date' ) ;
#34 = ADVANCED_FACE ( 'NONE', ( #160 ), #149, .F. ) ;
#35 = DIRECTION ( 'NONE',  ( 0.0000000000000000000, 0.0000000000000000000, 1.000000000000000000 ) ) ;
#36 = PERSON_AND_ORGANIZATION_ROLE ( 'creator' ) ;
#37 = SHAPE_DEFINITION_REPRESENTATION ( #164, #15 ) ;
#38 = CC_DESIGN_DATE_AND_TIME_ASSIGNMENT ( #59, #33, ( #19 ) ) ;
#39 = DIRECTION ( 'NONE',  ( 0.0000000000000000000, 0.0000000000000000000, 1.000000000000000000 ) ) ;
#40 = AXIS2_PLACEMENT_3D ( 'NONE', #96, #44, #114 ) ;
#41 =( LENGTH_UNIT ( ) NAMED_UNIT ( * ) SI_UNIT ( .MILLI., .METRE. ) );
#42 = APPLICATION_PROTOCOL_DEFINITION ( 'international standard', 'config_control_design', 1994, #68 ) ;
#43 = ORIENTED_EDGE ( 'NONE', *, *, #31, .F. ) ;
#44 = DIRECTION ( 'NONE',  ( 0.0000000000000000000, 0.0000000000000000000, 1.000000000000000000 ) ) ;
#45 = CARTESIAN_POINT ( 'NONE',  ( 0.0000000000000000000, 0.0000000000000000000, 0.0000000000000000000 ) ) ;
#46 = DATE_AND_TIME ( #171, #172 ) ;
#47 = APPLICATION_PROTOCOL_DEFINITION ( 'international standard', 'config_control_design', 1994, #23 ) ;
#48 = ORIENTED_EDGE ( 'NONE', *, *, #25, .F. ) ;
#49 = DIRECTION ( 'NONE',  ( -1.000000000000000000, 0.0000000000000000000, 0.0000000000000000000 ) ) ;
#50 = CARTESIAN_POINT ( 'NONE',  ( -12.69999999999999900, 0.0000000000000000000, 3.174999999999999800 ) ) ;
#51 = PERSON_AND_ORGANIZATION ( #141, #12 ) ;
#52 = AXIS2_PLACEMENT_3D ( 'NONE', #45, #115, #135 ) ;
#53 = ORIENTED_EDGE ( 'NONE', *, *, #157, .F. ) ;
#54 = CARTESIAN_POINT ( 'NONE',  ( 0.0000000000000000000, 0.0000000000000000000, 3.174999999999999800 ) ) ;
#55 =( GEOMETRIC_REPRESENTATION_CONTEXT ( 3 ) GLOBAL_UNCERTAINTY_ASSIGNED_CONTEXT ( ( #73 ) ) GLOBAL_UNIT_ASSIGNED_CONTEXT ( ( #41, #57, #168 ) ) REPRESENTATION_CONTEXT ( 'NONE', 'WORKASPACE' ) );
#56 = ORIENTED_EDGE ( 'NONE', *, *, #25, .T. ) ;
#57 =( NAMED_UNIT ( * ) PLANE_ANGLE_UNIT ( ) SI_UNIT ( $, .RADIAN. ) );
#58 = DESIGN_CONTEXT ( 'detailed design', #23, 'design' ) ;
#59 = DATE_AND_TIME ( #76, #170 ) ;
#60 = DIRECTION ( 'NONE',  ( -0.0000000000000000000, -0.0000000000000000000, -1.000000000000000000 ) ) ;
#61 = ORIENTED_EDGE ( 'NONE', *, *, #31, .T. ) ;
#62 = APPROVAL_ROLE ( '' ) ;
#63 = CARTESIAN_POINT ( 'NONE',  ( 0.0000000000000000000, 0.0000000000000000000, 3.174999999999999800 ) ) ;
#64 = CARTESIAN_POINT ( 'NONE',  ( -12.69999999999999900, 0.0000000000000000000, -3.174999999999999800 ) ) ;
#65 = PERSON_AND_ORGANIZATION_ROLE ( 'classification_officer' ) ;
#66 = CC_DESIGN_SECURITY_CLASSIFICATION ( #16, ( #130 ) ) ;
#67 = LOCAL_TIME ( 15, 26, 24.00000000000000000, #150 ) ;
#68 = APPLICATION_CONTEXT ( 'configuration controlled 3d designs of mechanical parts and assemblies' ) ;
#69 = CARTESIAN_POINT ( 'NONE',  ( 12.69999999999999900, 1.555301434917138400E-015, 3.174999999999999800 ) ) ;
#70 = CC_DESIGN_DATE_AND_TIME_ASSIGNMENT ( #169, #2, ( #16 ) ) ;
#71 = VERTEX_POINT ( 'NONE', #64 ) ;
#72 = AXIS2_PLACEMENT_3D ( 'NONE', #63, #60, #49 ) ;
#73 = UNCERTAINTY_MEASURE_WITH_UNIT (LENGTH_MEASURE( 1.000000000000000100E-005 ), #41, 'distance_accuracy_value', 'NONE');
#74 = FACE_OUTER_BOUND ( 'NONE', #10, .T. ) ;
#75 = APPROVAL_STATUS ( 'not_yet_approved' ) ;
#76 = CALENDAR_DATE ( 2019, 9, 1 ) ;
#77 = CARTESIAN_POINT ( 'NONE',  ( 0.0000000000000000000, 0.0000000000000000000, 3.174999999999999800 ) ) ;
#78 = APPROVAL_STATUS ( 'not_yet_approved' ) ;
#79 = COORDINATED_UNIVERSAL_TIME_OFFSET ( 5, 0, .BEHIND. ) ;
#80 = PRODUCT ( 'Web Model 37689_11548', 'Web Model 37689_11548', '', ( #126 ) ) ;
#81 = CIRCLE ( 'NONE', #152, 12.69999999999999900 ) ;
#82 = AXIS2_PLACEMENT_3D ( 'NONE', #5, #140, #147 ) ;
#83 = ORIENTED_EDGE ( 'NONE', *, *, #157, .T. ) ;
#84 = PRODUCT_RELATED_PRODUCT_CATEGORY ( 'detail', '', ( #80 ) ) ;
#85 = DIRECTION ( 'NONE',  ( -0.0000000000000000000, -0.0000000000000000000, -1.000000000000000000 ) ) ;
#86 = PERSON_AND_ORGANIZATION ( #141, #12 ) ;
#87 = AXIS2_PLACEMENT_3D ( 'NONE', #77, #35, #174 ) ;
#88 = VERTEX_POINT ( 'NONE', #11 ) ;
#89 = DATE_AND_TIME ( #111, #67 ) ;
#90 = EDGE_LOOP ( 'NONE', ( #6, #143 ) ) ;
#91 = CARTESIAN_POINT ( 'NONE',  ( 12.69999999999999900, 1.555301434917138400E-015, 3.174999999999999800 ) ) ;
#92 = CIRCLE ( 'NONE', #165, 12.69999999999999900 ) ;
#93 = APPROVAL_ROLE ( '' ) ;
#94 = FACE_OUTER_BOUND ( 'NONE', #90, .T. ) ;
#95 = DIRECTION ( 'NONE',  ( 1.000000000000000000, 0.0000000000000000000, 0.0000000000000000000 ) ) ;
#96 = CARTESIAN_POINT ( 'NONE',  ( 0.0000000000000000000, 0.0000000000000000000, 3.174999999999999800 ) ) ;
#97 = LOCAL_TIME ( 15, 26, 24.00000000000000000, #145 ) ;
#98 = VECTOR ( 'NONE', #104, 1000.000000000000000 ) ;
#99 = PERSON_AND_ORGANIZATION ( #141, #12 ) ;
#100 = DIRECTION ( 'NONE',  ( -0.0000000000000000000, -0.0000000000000000000, -1.000000000000000000 ) ) ;
#101 = CC_DESIGN_PERSON_AND_ORGANIZATION_ASSIGNMENT ( #129, #65, ( #16 ) ) ;
#102 = ORIENTED_EDGE ( 'NONE', *, *, #166, .F. ) ;
#103 = CIRCLE ( 'NONE', #87, 12.69999999999999900 ) ;
#104 = DIRECTION ( 'NONE',  ( -0.0000000000000000000, -0.0000000000000000000, -1.000000000000000000 ) ) ;
#105 = CARTESIAN_POINT ( 'NONE',  ( 12.69999999999999900, 1.555301434917138400E-015, -3.174999999999999800 ) ) ;
#106 = COORDINATED_UNIVERSAL_TIME_OFFSET ( 5, 0, .BEHIND. ) ;
#107 = CLOSED_SHELL ( 'NONE', ( #7, #108, #28, #34 ) ) ;
#108 = ADVANCED_FACE ( 'NONE', ( #125 ), #4, .T. ) ;
#109 = VECTOR ( 'NONE', #85, 1000.000000000000000 ) ;
#110 = DIRECTION ( 'NONE',  ( 0.0000000000000000000, 0.0000000000000000000, 1.000000000000000000 ) ) ;
#111 = CALENDAR_DATE ( 2019, 9, 1 ) ;
#112 = APPROVAL ( #78, 'UNSPECIFIED' ) ;
#113 = APPROVAL_STATUS ( 'not_yet_approved' ) ;
#114 = DIRECTION ( 'NONE',  ( 1.000000000000000000, 0.0000000000000000000, -0.0000000000000000000 ) ) ;
#115 = DIRECTION ( 'NONE',  ( 0.0000000000000000000, 0.0000000000000000000, 1.000000000000000000 ) ) ;
#116 = PERSON_AND_ORGANIZATION ( #141, #12 ) ;
#117 = EDGE_LOOP ( 'NONE', ( #53, #48 ) ) ;
#118 = DATE_AND_TIME ( #29, #97 ) ;
#119 = ORIENTED_EDGE ( 'NONE', *, *, #158, .T. ) ;
#120 = DIRECTION ( 'NONE',  ( 0.0000000000000000000, 0.0000000000000000000, 1.000000000000000000 ) ) ;
#121 = DIRECTION ( 'NONE',  ( 1.000000000000000000, 0.0000000000000000000, -0.0000000000000000000 ) ) ;
#122 = PERSON_AND_ORGANIZATION_ROLE ( 'design_supplier' ) ;
#123 = APPROVAL_PERSON_ORGANIZATION ( #116, #1, #62 ) ;
#124 = AXIS2_PLACEMENT_3D ( 'NONE', #54, #100, #155 ) ;
#125 = FACE_OUTER_BOUND ( 'NONE', #13, .T. ) ;
#126 = MECHANICAL_CONTEXT ( 'NONE', #68, 'mechanical' ) ;
#127 = EDGE_CURVE ( 'NONE', #163, #88, #103, .T. ) ;
#128 = PLANE ( 'NONE',  #40 ) ;
#129 = PERSON_AND_ORGANIZATION ( #141, #12 ) ;
#130 = PRODUCT_DEFINITION_FORMATION_WITH_SPECIFIED_SOURCE ( 'ANY', '', #80, .NOT_KNOWN. ) ;
#131 = CC_DESIGN_APPROVAL ( #112, ( #19 ) ) ;
#132 = SECURITY_CLASSIFICATION_LEVEL ( 'unclassified' ) ;
#133 = CARTESIAN_POINT ( 'NONE',  ( 0.0000000000000000000, 0.0000000000000000000, -3.174999999999999800 ) ) ;
#134 = PERSON_AND_ORGANIZATION ( #141, #12 ) ;
#135 = DIRECTION ( 'NONE',  ( 1.000000000000000000, 0.0000000000000000000, 0.0000000000000000000 ) ) ;
#136 = LINE ( 'NONE', #50, #109 ) ;
#137 = LOCAL_TIME ( 15, 26, 24.00000000000000000, #79 ) ;
#138 = CC_DESIGN_PERSON_AND_ORGANIZATION_ASSIGNMENT ( #32, #30, ( #130 ) ) ;
#139 = MANIFOLD_SOLID_BREP ( 'Boss-Extrude1', #107 ) ;
#140 = DIRECTION ( 'NONE',  ( 0.0000000000000000000, 0.0000000000000000000, 1.000000000000000000 ) ) ;
#141 = PERSON ( 'UNSPECIFIED', 'UNSPECIFIED', 'UNSPECIFIED', ('UNSPECIFIED'), ('UNSPECIFIED'), ('UNSPECIFIED') ) ;
#142 = AXIS2_PLACEMENT_3D ( 'NONE', #18, #120, #121 ) ;
#143 = ORIENTED_EDGE ( 'NONE', *, *, #127, .T. ) ;
#144 = COORDINATED_UNIVERSAL_TIME_OFFSET ( 5, 0, .BEHIND. ) ;
#145 = COORDINATED_UNIVERSAL_TIME_OFFSET ( 5, 0, .BEHIND. ) ;
#146 = CYLINDRICAL_SURFACE ( 'NONE', #72, 12.69999999999999900 ) ;
#147 = DIRECTION ( 'NONE',  ( 1.000000000000000000, 0.0000000000000000000, 0.0000000000000000000 ) ) ;
#148 = ORIENTED_EDGE ( 'NONE', *, *, #127, .F. ) ;
#149 = PLANE ( 'NONE',  #142 ) ;
#150 = COORDINATED_UNIVERSAL_TIME_OFFSET ( 5, 0, .BEHIND. ) ;
#151 = CC_DESIGN_APPROVAL ( #1, ( #130 ) ) ;
#152 = AXIS2_PLACEMENT_3D ( 'NONE', #159, #110, #156 ) ;
#153 = CC_DESIGN_APPROVAL ( #14, ( #16 ) ) ;
#154 = APPROVAL_PERSON_ORGANIZATION ( #51, #112, #162 ) ;
#155 = DIRECTION ( 'NONE',  ( -1.000000000000000000, 0.0000000000000000000, 0.0000000000000000000 ) ) ;
#156 = DIRECTION ( 'NONE',  ( 1.000000000000000000, 0.0000000000000000000, 0.0000000000000000000 ) ) ;
#157 = EDGE_CURVE ( 'NONE', #71, #173, #81, .T. ) ;
#158 = EDGE_CURVE ( 'NONE', #88, #71, #136, .T. ) ;
#159 = CARTESIAN_POINT ( 'NONE',  ( 0.0000000000000000000, 0.0000000000000000000, -3.174999999999999800 ) ) ;
#160 = FACE_OUTER_BOUND ( 'NONE', #117, .T. ) ;
#161 = CALENDAR_DATE ( 2019, 9, 1 ) ;
#162 = APPROVAL_ROLE ( '' ) ;
#163 = VERTEX_POINT ( 'NONE', #69 ) ;
#164 = PRODUCT_DEFINITION_SHAPE ( 'NONE', 'NONE',  #19 ) ;
#165 = AXIS2_PLACEMENT_3D ( 'NONE', #133, #39, #95 ) ;
#166 = EDGE_CURVE ( 'NONE', #88, #163, #22, .T. ) ;
#167 = PERSON_AND_ORGANIZATION ( #141, #12 ) ;
#168 =( NAMED_UNIT ( * ) SI_UNIT ( $, .STERADIAN. ) SOLID_ANGLE_UNIT ( ) );
#169 = DATE_AND_TIME ( #161, #137 ) ;
#170 = LOCAL_TIME ( 15, 26, 24.00000000000000000, #106 ) ;
#171 = CALENDAR_DATE ( 2019, 9, 1 ) ;
#172 = LOCAL_TIME ( 15, 26, 24.00000000000000000, #144 ) ;
#173 = VERTEX_POINT ( 'NONE', #105 ) ;
#174 = DIRECTION ( 'NONE',  ( 1.000000000000000000, 0.0000000000000000000, 0.0000000000000000000 ) ) ;
#175 = CC_DESIGN_PERSON_AND_ORGANIZATION_ASSIGNMENT ( #167, #8, ( #80 ) ) ;
ENDSEC;
END-ISO-10303-21;
