ISO-10303-21;
HEADER;
FILE_DESCRIPTION (( 'STEP AP203' ),
    '1' );
FILE_NAME ('Web Model 15424_15424.step',
    '2020-07-31T18:43:25',
    ( '' ),
    ( '' ),
    'SwSTEP 2.0',
    'SolidWorks 2018',
    '' );
FILE_SCHEMA (( 'CONFIG_CONTROL_DESIGN' ));
ENDSEC;

DATA;
#1 = CALENDAR_DATE ( 2020, 31, 7 ) ;
#2 = DIRECTION ( 'NONE',  ( -0.0000000000000000000, -0.0000000000000000000, -1.000000000000000000 ) ) ;
#3 = EDGE_LOOP ( 'NONE', ( #146, #81 ) ) ;
#4 = COORDINATED_UNIVERSAL_TIME_OFFSET ( 5, 0, .BEHIND. ) ;
#5 = DIRECTION ( 'NONE',  ( 1.000000000000000000, 0.0000000000000000000, 0.0000000000000000000 ) ) ;
#6 = VERTEX_POINT ( 'NONE', #111 ) ;
#7 = PERSON ( 'UNSPECIFIED', 'UNSPECIFIED', 'UNSPECIFIED', ('UNSPECIFIED'), ('UNSPECIFIED'), ('UNSPECIFIED') ) ;
#8 = ORIENTED_EDGE ( 'NONE', *, *, #161, .T. ) ;
#9 = CALENDAR_DATE ( 2020, 31, 7 ) ;
#10 = AXIS2_PLACEMENT_3D ( 'NONE', #31, #158, #130 ) ;
#11 = CC_DESIGN_SECURITY_CLASSIFICATION ( #54, ( #40 ) ) ;
#12 = SECURITY_CLASSIFICATION_LEVEL ( 'unclassified' ) ;
#13 = ADVANCED_FACE ( 'NONE', ( #149 ), #61, .T. ) ;
#14 = DATE_AND_TIME ( #1, #91 ) ;
#15 = CARTESIAN_POINT ( 'NONE',  ( -12.69999999999999929, 0.0000000000000000000, 1.000000000000000000 ) ) ;
#16 = DIRECTION ( 'NONE',  ( 0.0000000000000000000, 0.0000000000000000000, 1.000000000000000000 ) ) ;
#17 = CALENDAR_DATE ( 2020, 31, 7 ) ;
#18 = APPROVAL_STATUS ( 'not_yet_approved' ) ;
#19 = EDGE_CURVE ( 'NONE', #97, #6, #104, .T. ) ;
#20 = APPROVAL_ROLE ( '' ) ;
#21 = DIRECTION ( 'NONE',  ( -0.0000000000000000000, -0.0000000000000000000, -1.000000000000000000 ) ) ;
#22 = PERSON_AND_ORGANIZATION ( #7, #121 ) ;
#23 = PRODUCT_DEFINITION_SHAPE ( 'NONE', 'NONE',  #162 ) ;
#24 = APPROVAL_DATE_TIME ( #67, #101 ) ;
#25 = ADVANCED_FACE ( 'NONE', ( #95 ), #93, .F. ) ;
#26 =( NAMED_UNIT ( * ) PLANE_ANGLE_UNIT ( ) SI_UNIT ( $, .RADIAN. ) );
#27 = AXIS2_PLACEMENT_3D ( 'NONE', #147, #28, #154 ) ;
#28 = DIRECTION ( 'NONE',  ( 0.0000000000000000000, 0.0000000000000000000, 1.000000000000000000 ) ) ;
#29 = AXIS2_PLACEMENT_3D ( 'NONE', #145, #144, #68 ) ;
#30 = VECTOR ( 'NONE', #2, 1000.000000000000000 ) ;
#31 = CARTESIAN_POINT ( 'NONE',  ( 0.0000000000000000000, 0.0000000000000000000, 1.000000000000000000 ) ) ;
#32 = DIRECTION ( 'NONE',  ( -1.000000000000000000, 0.0000000000000000000, 0.0000000000000000000 ) ) ;
#33 = DATE_AND_TIME ( #124, #43 ) ;
#34 = ORIENTED_EDGE ( 'NONE', *, *, #153, .T. ) ;
#35 = APPROVAL_PERSON_ORGANIZATION ( #77, #101, #42 ) ;
#36 = AXIS2_PLACEMENT_3D ( 'NONE', #151, #74, #5 ) ;
#37 = PERSON_AND_ORGANIZATION_ROLE ( 'design_supplier' ) ;
#38 = CC_DESIGN_DATE_AND_TIME_ASSIGNMENT ( #33, #118, ( #54 ) ) ;
#39 = MECHANICAL_CONTEXT ( 'NONE', #99, 'mechanical' ) ;
#40 = PRODUCT_DEFINITION_FORMATION_WITH_SPECIFIED_SOURCE ( 'ANY', '', #169, .NOT_KNOWN. ) ;
#41 = ORIENTED_EDGE ( 'NONE', *, *, #19, .T. ) ;
#42 = APPROVAL_ROLE ( '' ) ;
#43 = LOCAL_TIME ( 14, 43, 25.00000000000000000, #116 ) ;
#44 = CIRCLE ( 'NONE', #36, 12.69999999999999929 ) ;
#45 = DIRECTION ( 'NONE',  ( 0.0000000000000000000, 0.0000000000000000000, 1.000000000000000000 ) ) ;
#46 = VERTEX_POINT ( 'NONE', #170 ) ;
#47 = PERSON_AND_ORGANIZATION ( #7, #121 ) ;
#48 = CC_DESIGN_PERSON_AND_ORGANIZATION_ASSIGNMENT ( #135, #148, ( #169 ) ) ;
#49 = PERSON_AND_ORGANIZATION_ROLE ( 'creator' ) ;
#50 = PLANE ( 'NONE',  #29 ) ;
#51 = APPROVAL ( #18, 'UNSPECIFIED' ) ;
#52 = PERSON_AND_ORGANIZATION ( #7, #121 ) ;
#53 = LINE ( 'NONE', #15, #139 ) ;
#54 = SECURITY_CLASSIFICATION ( '', '', #12 ) ;
#55 = EDGE_LOOP ( 'NONE', ( #85, #109 ) ) ;
#56 = ADVANCED_FACE ( 'NONE', ( #117 ), #75, .T. ) ;
#57 = DIRECTION ( 'NONE',  ( 1.000000000000000000, 0.0000000000000000000, 0.0000000000000000000 ) ) ;
#58 = DATE_TIME_ROLE ( 'creation_date' ) ;
#59 = DIRECTION ( 'NONE',  ( -0.0000000000000000000, -0.0000000000000000000, -1.000000000000000000 ) ) ;
#60 = CC_DESIGN_PERSON_AND_ORGANIZATION_ASSIGNMENT ( #62, #137, ( #162 ) ) ;
#61 = CYLINDRICAL_SURFACE ( 'NONE', #122, 12.69999999999999929 ) ;
#62 = PERSON_AND_ORGANIZATION ( #7, #121 ) ;
#63 = PERSON_AND_ORGANIZATION ( #7, #121 ) ;
#64 = CC_DESIGN_PERSON_AND_ORGANIZATION_ASSIGNMENT ( #150, #174, ( #54 ) ) ;
#65 = ORIENTED_EDGE ( 'NONE', *, *, #172, .T. ) ;
#66 = CARTESIAN_POINT ( 'NONE',  ( 0.0000000000000000000, 0.0000000000000000000, -1.000000000000000000 ) ) ;
#67 = DATE_AND_TIME ( #102, #110 ) ;
#68 = DIRECTION ( 'NONE',  ( 1.000000000000000000, 0.0000000000000000000, -0.0000000000000000000 ) ) ;
#69 = CC_DESIGN_DATE_AND_TIME_ASSIGNMENT ( #128, #58, ( #162 ) ) ;
#70 = ADVANCED_FACE ( 'NONE', ( #175 ), #50, .T. ) ;
#71 = SHAPE_DEFINITION_REPRESENTATION ( #23, #123 ) ;
#72 = APPLICATION_CONTEXT ( 'configuration controlled 3d designs of mechanical parts and assemblies' ) ;
#73 = AXIS2_PLACEMENT_3D ( 'NONE', #127, #45, #125 ) ;
#74 = DIRECTION ( 'NONE',  ( 0.0000000000000000000, 0.0000000000000000000, 1.000000000000000000 ) ) ;
#75 = CYLINDRICAL_SURFACE ( 'NONE', #10, 12.69999999999999929 ) ;
#76 = ORIENTED_EDGE ( 'NONE', *, *, #153, .F. ) ;
#77 = PERSON_AND_ORGANIZATION ( #7, #121 ) ;
#78 = CC_DESIGN_APPROVAL ( #101, ( #162 ) ) ;
#79 = APPROVAL_STATUS ( 'not_yet_approved' ) ;
#80 = UNCERTAINTY_MEASURE_WITH_UNIT (LENGTH_MEASURE( 1.000000000000000082E-05 ), #138, 'distance_accuracy_value', 'NONE');
#81 = ORIENTED_EDGE ( 'NONE', *, *, #172, .F. ) ;
#82 = AXIS2_PLACEMENT_3D ( 'NONE', #136, #16, #57 ) ;
#83 = LOCAL_TIME ( 14, 43, 25.00000000000000000, #156 ) ;
#84 = CIRCLE ( 'NONE', #27, 12.69999999999999929 ) ;
#85 = ORIENTED_EDGE ( 'NONE', *, *, #90, .T. ) ;
#86 = APPROVAL_STATUS ( 'not_yet_approved' ) ;
#87 = APPROVAL_PERSON_ORGANIZATION ( #52, #89, #20 ) ;
#88 = CARTESIAN_POINT ( 'NONE',  ( 12.69999999999999929, 1.555301434917138433E-15, 1.000000000000000000 ) ) ;
#89 = APPROVAL ( #79, 'UNSPECIFIED' ) ;
#90 = EDGE_CURVE ( 'NONE', #113, #46, #84, .T. ) ;
#91 = LOCAL_TIME ( 14, 43, 25.00000000000000000, #98 ) ;
#92 = AXIS2_PLACEMENT_3D ( 'NONE', #66, #119, #129 ) ;
#93 = PLANE ( 'NONE',  #92 ) ;
#94 = CC_DESIGN_PERSON_AND_ORGANIZATION_ASSIGNMENT ( #47, #49, ( #40 ) ) ;
#95 = FACE_OUTER_BOUND ( 'NONE', #3, .T. ) ;
#96 = PRODUCT_RELATED_PRODUCT_CATEGORY ( 'detail', '', ( #169 ) ) ;
#97 = VERTEX_POINT ( 'NONE', #166 ) ;
#98 = COORDINATED_UNIVERSAL_TIME_OFFSET ( 5, 0, .BEHIND. ) ;
#99 = APPLICATION_CONTEXT ( 'configuration controlled 3d designs of mechanical parts and assemblies' ) ;
#100 = ORIENTED_EDGE ( 'NONE', *, *, #161, .F. ) ;
#101 = APPROVAL ( #86, 'UNSPECIFIED' ) ;
#102 = CALENDAR_DATE ( 2020, 31, 7 ) ;
#103 = COORDINATED_UNIVERSAL_TIME_OFFSET ( 5, 0, .BEHIND. ) ;
#104 = CIRCLE ( 'NONE', #108, 12.69999999999999929 ) ;
#105 = CARTESIAN_POINT ( 'NONE',  ( 0.0000000000000000000, 0.0000000000000000000, 1.000000000000000000 ) ) ;
#106 = CC_DESIGN_APPROVAL ( #51, ( #54 ) ) ;
#107 = DATE_AND_TIME ( #9, #160 ) ;
#108 = AXIS2_PLACEMENT_3D ( 'NONE', #131, #173, #159 ) ;
#109 = ORIENTED_EDGE ( 'NONE', *, *, #134, .T. ) ;
#110 = LOCAL_TIME ( 14, 43, 25.00000000000000000, #4 ) ;
#111 = CARTESIAN_POINT ( 'NONE',  ( 12.69999999999999929, 1.555301434917138433E-15, -1.000000000000000000 ) ) ;
#112 =( NAMED_UNIT ( * ) SI_UNIT ( $, .STERADIAN. ) SOLID_ANGLE_UNIT ( ) );
#113 = VERTEX_POINT ( 'NONE', #165 ) ;
#114 = CC_DESIGN_PERSON_AND_ORGANIZATION_ASSIGNMENT ( #63, #37, ( #40 ) ) ;
#115 = EDGE_LOOP ( 'NONE', ( #100, #142, #34, #41 ) ) ;
#116 = COORDINATED_UNIVERSAL_TIME_OFFSET ( 5, 0, .BEHIND. ) ;
#117 = FACE_OUTER_BOUND ( 'NONE', #115, .T. ) ;
#118 = DATE_TIME_ROLE ( 'classification_date' ) ;
#119 = DIRECTION ( 'NONE',  ( 0.0000000000000000000, 0.0000000000000000000, 1.000000000000000000 ) ) ;
#120 = EDGE_LOOP ( 'NONE', ( #168, #8, #65, #76 ) ) ;
#121 = ORGANIZATION ( 'UNSPECIFIED', 'UNSPECIFIED', '' ) ;
#122 = AXIS2_PLACEMENT_3D ( 'NONE', #105, #21, #32 ) ;
#123 = ADVANCED_BREP_SHAPE_REPRESENTATION ( 'Web Model 15424_15424', ( #155, #82 ), #143 ) ;
#124 = CALENDAR_DATE ( 2020, 31, 7 ) ;
#125 = DIRECTION ( 'NONE',  ( 1.000000000000000000, 0.0000000000000000000, 0.0000000000000000000 ) ) ;
#126 = CC_DESIGN_APPROVAL ( #89, ( #40 ) ) ;
#127 = CARTESIAN_POINT ( 'NONE',  ( 0.0000000000000000000, 0.0000000000000000000, -1.000000000000000000 ) ) ;
#128 = DATE_AND_TIME ( #17, #83 ) ;
#129 = DIRECTION ( 'NONE',  ( 1.000000000000000000, 0.0000000000000000000, -0.0000000000000000000 ) ) ;
#130 = DIRECTION ( 'NONE',  ( -1.000000000000000000, 0.0000000000000000000, 0.0000000000000000000 ) ) ;
#131 = CARTESIAN_POINT ( 'NONE',  ( 0.0000000000000000000, 0.0000000000000000000, -1.000000000000000000 ) ) ;
#132 = APPROVAL_DATE_TIME ( #107, #89 ) ;
#133 = DESIGN_CONTEXT ( 'detailed design', #72, 'design' ) ;
#134 = EDGE_CURVE ( 'NONE', #46, #113, #44, .T. ) ;
#135 = PERSON_AND_ORGANIZATION ( #7, #121 ) ;
#136 = CARTESIAN_POINT ( 'NONE',  ( 0.0000000000000000000, 0.0000000000000000000, 0.0000000000000000000 ) ) ;
#137 = PERSON_AND_ORGANIZATION_ROLE ( 'creator' ) ;
#138 =( LENGTH_UNIT ( ) NAMED_UNIT ( * ) SI_UNIT ( .MILLI., .METRE. ) );
#139 = VECTOR ( 'NONE', #59, 1000.000000000000000 ) ;
#140 = APPLICATION_PROTOCOL_DEFINITION ( 'international standard', 'config_control_design', 1994, #99 ) ;
#141 = APPROVAL_DATE_TIME ( #14, #51 ) ;
#142 = ORIENTED_EDGE ( 'NONE', *, *, #90, .F. ) ;
#143 =( GEOMETRIC_REPRESENTATION_CONTEXT ( 3 ) GLOBAL_UNCERTAINTY_ASSIGNED_CONTEXT ( ( #80 ) ) GLOBAL_UNIT_ASSIGNED_CONTEXT ( ( #138, #26, #112 ) ) REPRESENTATION_CONTEXT ( 'NONE', 'WORKASPACE' ) );
#144 = DIRECTION ( 'NONE',  ( 0.0000000000000000000, 0.0000000000000000000, 1.000000000000000000 ) ) ;
#145 = CARTESIAN_POINT ( 'NONE',  ( 0.0000000000000000000, 0.0000000000000000000, 1.000000000000000000 ) ) ;
#146 = ORIENTED_EDGE ( 'NONE', *, *, #19, .F. ) ;
#147 = CARTESIAN_POINT ( 'NONE',  ( 0.0000000000000000000, 0.0000000000000000000, 1.000000000000000000 ) ) ;
#148 = PERSON_AND_ORGANIZATION_ROLE ( 'design_owner' ) ;
#149 = FACE_OUTER_BOUND ( 'NONE', #120, .T. ) ;
#150 = PERSON_AND_ORGANIZATION ( #7, #121 ) ;
#151 = CARTESIAN_POINT ( 'NONE',  ( 0.0000000000000000000, 0.0000000000000000000, 1.000000000000000000 ) ) ;
#152 = CIRCLE ( 'NONE', #73, 12.69999999999999929 ) ;
#153 = EDGE_CURVE ( 'NONE', #113, #97, #53, .T. ) ;
#154 = DIRECTION ( 'NONE',  ( 1.000000000000000000, 0.0000000000000000000, 0.0000000000000000000 ) ) ;
#155 = MANIFOLD_SOLID_BREP ( 'Boss-Extrude1', #167 ) ;
#156 = COORDINATED_UNIVERSAL_TIME_OFFSET ( 5, 0, .BEHIND. ) ;
#157 = LINE ( 'NONE', #88, #30 ) ;
#158 = DIRECTION ( 'NONE',  ( -0.0000000000000000000, -0.0000000000000000000, -1.000000000000000000 ) ) ;
#159 = DIRECTION ( 'NONE',  ( 1.000000000000000000, 0.0000000000000000000, 0.0000000000000000000 ) ) ;
#160 = LOCAL_TIME ( 14, 43, 25.00000000000000000, #103 ) ;
#161 = EDGE_CURVE ( 'NONE', #46, #6, #157, .T. ) ;
#162 = PRODUCT_DEFINITION ( 'UNKNOWN', '', #40, #133 ) ;
#163 = APPROVAL_PERSON_ORGANIZATION ( #22, #51, #171 ) ;
#164 = APPLICATION_PROTOCOL_DEFINITION ( 'international standard', 'config_control_design', 1994, #72 ) ;
#165 = CARTESIAN_POINT ( 'NONE',  ( -12.69999999999999929, 0.0000000000000000000, 1.000000000000000000 ) ) ;
#166 = CARTESIAN_POINT ( 'NONE',  ( -12.69999999999999929, 0.0000000000000000000, -1.000000000000000000 ) ) ;
#167 = CLOSED_SHELL ( 'NONE', ( #13, #56, #70, #25 ) ) ;
#168 = ORIENTED_EDGE ( 'NONE', *, *, #134, .F. ) ;
#169 = PRODUCT ( 'Web Model 15424_15424', 'Web Model 15424_15424', '', ( #39 ) ) ;
#170 = CARTESIAN_POINT ( 'NONE',  ( 12.69999999999999929, 1.555301434917138433E-15, 1.000000000000000000 ) ) ;
#171 = APPROVAL_ROLE ( '' ) ;
#172 = EDGE_CURVE ( 'NONE', #6, #97, #152, .T. ) ;
#173 = DIRECTION ( 'NONE',  ( 0.0000000000000000000, 0.0000000000000000000, 1.000000000000000000 ) ) ;
#174 = PERSON_AND_ORGANIZATION_ROLE ( 'classification_officer' ) ;
#175 = FACE_OUTER_BOUND ( 'NONE', #55, .T. ) ;
ENDSEC;
END-ISO-10303-21;
