ISO-10303-21;
HEADER;
FILE_DESCRIPTION (( 'STEP AP203' ),
    '1' );
FILE_NAME ('34600_36942.step',
    '2017-08-24T13:16:10',
    ( '' ),
    ( '' ),
    'SwSTEP 2.0',
    'SolidWorks 2016',
    '' );
FILE_SCHEMA (( 'CONFIG_CONTROL_DESIGN' ));
ENDSEC;

DATA;
#1 = DIRECTION ( 'NONE',  ( -0.0000000000000000000, -0.0000000000000000000, -1.000000000000000000 ) ) ;
#2 = APPLICATION_PROTOCOL_DEFINITION ( 'international standard', 'config_control_design', 1994, #85 ) ;
#3 = CALENDAR_DATE ( 2017, 24, 8 ) ;
#4 = CYLINDRICAL_SURFACE ( 'NONE', #9, 25.00000000000000000 ) ;
#5 = EDGE_CURVE ( 'NONE', #76, #57, #40, .T. ) ;
#6 = PERSON_AND_ORGANIZATION ( #107, #59 ) ;
#7 = VERTEX_POINT ( 'NONE', #37 ) ;
#8 = EDGE_LOOP ( 'NONE', ( #47, #157 ) ) ;
#9 = AXIS2_PLACEMENT_3D ( 'NONE', #113, #150, #64 ) ;
#10 = PERSON_AND_ORGANIZATION ( #107, #59 ) ;
#11 = ADVANCED_FACE ( 'NONE', ( #45 ), #4, .T. ) ;
#12 = AXIS2_PLACEMENT_3D ( 'NONE', #43, #126, #41 ) ;
#13 = APPROVAL_ROLE ( '' ) ;
#14 = PERSON_AND_ORGANIZATION ( #107, #59 ) ;
#15 = ORIENTED_EDGE ( 'NONE', *, *, #5, .F. ) ;
#16 = DATE_TIME_ROLE ( 'creation_date' ) ;
#17 = CC_DESIGN_APPROVAL ( #131, ( #146 ) ) ;
#18 = LOCAL_TIME ( 9, 16, 10.00000000000000000, #145 ) ;
#19 = ADVANCED_BREP_SHAPE_REPRESENTATION ( '34600_36942', ( #61, #58 ), #30 ) ;
#20 = DATE_AND_TIME ( #55, #118 ) ;
#21 = DIRECTION ( 'NONE',  ( 1.000000000000000000, 0.0000000000000000000, -0.0000000000000000000 ) ) ;
#22 = COORDINATED_UNIVERSAL_TIME_OFFSET ( 5, 0, .BEHIND. ) ;
#23 = ADVANCED_FACE ( 'NONE', ( #93 ), #148, .T. ) ;
#24 = CC_DESIGN_APPROVAL ( #79, ( #28 ) ) ;
#25 = DIRECTION ( 'NONE',  ( 0.0000000000000000000, 0.0000000000000000000, 1.000000000000000000 ) ) ;
#26 = SECURITY_CLASSIFICATION_LEVEL ( 'unclassified' ) ;
#27 = APPROVAL_PERSON_ORGANIZATION ( #10, #79, #83 ) ;
#28 = SECURITY_CLASSIFICATION ( '', '', #26 ) ;
#29 = CARTESIAN_POINT ( 'NONE',  ( 0.0000000000000000000, 0.0000000000000000000, 0.0000000000000000000 ) ) ;
#30 =( GEOMETRIC_REPRESENTATION_CONTEXT ( 3 ) GLOBAL_UNCERTAINTY_ASSIGNED_CONTEXT ( ( #33 ) ) GLOBAL_UNIT_ASSIGNED_CONTEXT ( ( #120, #141, #128 ) ) REPRESENTATION_CONTEXT ( 'NONE', 'WORKASPACE' ) );
#31 = DESIGN_CONTEXT ( 'detailed design', #85, 'design' ) ;
#32 = CALENDAR_DATE ( 2017, 24, 8 ) ;
#33 = UNCERTAINTY_MEASURE_WITH_UNIT (LENGTH_MEASURE( 1.000000000000000100E-005 ), #120, 'distance_accuracy_value', 'NONE');
#34 = AXIS2_PLACEMENT_3D ( 'NONE', #96, #174, #95 ) ;
#35 = LINE ( 'NONE', #82, #109 ) ;
#36 = CC_DESIGN_PERSON_AND_ORGANIZATION_ASSIGNMENT ( #44, #116, ( #28 ) ) ;
#37 = CARTESIAN_POINT ( 'NONE',  ( 25.00000000000000000, 3.061616997868383000E-015, 0.0000000000000000000 ) ) ;
#38 = VECTOR ( 'NONE', #133, 1000.000000000000000 ) ;
#39 = PLANE ( 'NONE',  #88 ) ;
#40 = CIRCLE ( 'NONE', #34, 25.00000000000000000 ) ;
#41 = DIRECTION ( 'NONE',  ( 1.000000000000000000, 0.0000000000000000000, -0.0000000000000000000 ) ) ;
#42 = PERSON_AND_ORGANIZATION_ROLE ( 'design_supplier' ) ;
#43 = CARTESIAN_POINT ( 'NONE',  ( 0.0000000000000000000, 0.0000000000000000000, 0.0000000000000000000 ) ) ;
#44 = PERSON_AND_ORGANIZATION ( #107, #59 ) ;
#45 = FACE_OUTER_BOUND ( 'NONE', #161, .T. ) ;
#46 = APPROVAL_STATUS ( 'not_yet_approved' ) ;
#47 = ORIENTED_EDGE ( 'NONE', *, *, #77, .T. ) ;
#48 = CC_DESIGN_DATE_AND_TIME_ASSIGNMENT ( #173, #140, ( #28 ) ) ;
#49 = LOCAL_TIME ( 9, 16, 10.00000000000000000, #60 ) ;
#50 = CLOSED_SHELL ( 'NONE', ( #23, #11, #80, #114 ) ) ;
#51 = CARTESIAN_POINT ( 'NONE',  ( -25.00000000000000000, 0.0000000000000000000, 2.000000000000000000 ) ) ;
#52 = DIRECTION ( 'NONE',  ( 1.000000000000000000, 0.0000000000000000000, 0.0000000000000000000 ) ) ;
#53 = APPLICATION_CONTEXT ( 'configuration controlled 3d designs of mechanical parts and assemblies' ) ;
#54 = AXIS2_PLACEMENT_3D ( 'NONE', #29, #68, #153 ) ;
#55 = CALENDAR_DATE ( 2017, 24, 8 ) ;
#56 = APPROVAL_STATUS ( 'not_yet_approved' ) ;
#57 = VERTEX_POINT ( 'NONE', #51 ) ;
#58 = AXIS2_PLACEMENT_3D ( 'NONE', #127, #155, #66 ) ;
#59 = ORGANIZATION ( 'UNSPECIFIED', 'UNSPECIFIED', '' ) ;
#60 = COORDINATED_UNIVERSAL_TIME_OFFSET ( 5, 0, .BEHIND. ) ;
#61 = MANIFOLD_SOLID_BREP ( 'Boss-Extrude1', #50 ) ;
#62 = CARTESIAN_POINT ( 'NONE',  ( -25.00000000000000000, 0.0000000000000000000, 0.0000000000000000000 ) ) ;
#63 = DATE_AND_TIME ( #168, #49 ) ;
#64 = DIRECTION ( 'NONE',  ( -1.000000000000000000, 0.0000000000000000000, 0.0000000000000000000 ) ) ;
#65 = EDGE_CURVE ( 'NONE', #76, #7, #130, .T. ) ;
#66 = DIRECTION ( 'NONE',  ( 1.000000000000000000, 0.0000000000000000000, 0.0000000000000000000 ) ) ;
#67 = APPROVAL_DATE_TIME ( #20, #158 ) ;
#68 = DIRECTION ( 'NONE',  ( 0.0000000000000000000, 0.0000000000000000000, 1.000000000000000000 ) ) ;
#69 = DIRECTION ( 'NONE',  ( 1.000000000000000000, 0.0000000000000000000, 0.0000000000000000000 ) ) ;
#70 = PRODUCT_DEFINITION ( 'UNKNOWN', '', #146, #31 ) ;
#71 = CIRCLE ( 'NONE', #117, 25.00000000000000000 ) ;
#72 = PERSON_AND_ORGANIZATION_ROLE ( 'design_owner' ) ;
#73 = PRODUCT_DEFINITION_SHAPE ( 'NONE', 'NONE',  #70 ) ;
#74 = FACE_OUTER_BOUND ( 'NONE', #8, .T. ) ;
#75 = CC_DESIGN_SECURITY_CLASSIFICATION ( #28, ( #146 ) ) ;
#76 = VERTEX_POINT ( 'NONE', #163 ) ;
#77 = EDGE_CURVE ( 'NONE', #57, #76, #119, .T. ) ;
#78 = ORIENTED_EDGE ( 'NONE', *, *, #92, .F. ) ;
#79 = APPROVAL ( #46, 'UNSPECIFIED' ) ;
#80 = ADVANCED_FACE ( 'NONE', ( #74 ), #39, .T. ) ;
#81 = CARTESIAN_POINT ( 'NONE',  ( 0.0000000000000000000, 0.0000000000000000000, 2.000000000000000000 ) ) ;
#82 = CARTESIAN_POINT ( 'NONE',  ( -25.00000000000000000, 0.0000000000000000000, 2.000000000000000000 ) ) ;
#83 = APPROVAL_ROLE ( '' ) ;
#84 = CC_DESIGN_PERSON_AND_ORGANIZATION_ASSIGNMENT ( #14, #102, ( #70 ) ) ;
#85 = APPLICATION_CONTEXT ( 'configuration controlled 3d designs of mechanical parts and assemblies' ) ;
#86 = VERTEX_POINT ( 'NONE', #62 ) ;
#87 = MECHANICAL_CONTEXT ( 'NONE', #53, 'mechanical' ) ;
#88 = AXIS2_PLACEMENT_3D ( 'NONE', #175, #138, #21 ) ;
#89 = APPROVAL_DATE_TIME ( #63, #79 ) ;
#90 = ORIENTED_EDGE ( 'NONE', *, *, #65, .T. ) ;
#91 = PRODUCT ( '34600_36942', '34600_36942', '', ( #87 ) ) ;
#92 = EDGE_CURVE ( 'NONE', #86, #7, #71, .T. ) ;
#93 = FACE_OUTER_BOUND ( 'NONE', #151, .T. ) ;
#94 = ORIENTED_EDGE ( 'NONE', *, *, #165, .T. ) ;
#95 = DIRECTION ( 'NONE',  ( 1.000000000000000000, 0.0000000000000000000, 0.0000000000000000000 ) ) ;
#96 = CARTESIAN_POINT ( 'NONE',  ( 0.0000000000000000000, 0.0000000000000000000, 2.000000000000000000 ) ) ;
#97 = ORIENTED_EDGE ( 'NONE', *, *, #149, .T. ) ;
#98 = DIRECTION ( 'NONE',  ( -1.000000000000000000, 0.0000000000000000000, 0.0000000000000000000 ) ) ;
#99 = APPLICATION_PROTOCOL_DEFINITION ( 'international standard', 'config_control_design', 1994, #53 ) ;
#100 = COORDINATED_UNIVERSAL_TIME_OFFSET ( 5, 0, .BEHIND. ) ;
#101 = APPROVAL_STATUS ( 'not_yet_approved' ) ;
#102 = PERSON_AND_ORGANIZATION_ROLE ( 'creator' ) ;
#103 = AXIS2_PLACEMENT_3D ( 'NONE', #135, #124, #98 ) ;
#104 = PERSON_AND_ORGANIZATION ( #107, #59 ) ;
#105 = FACE_OUTER_BOUND ( 'NONE', #162, .T. ) ;
#106 = LOCAL_TIME ( 9, 16, 10.00000000000000000, #22 ) ;
#107 = PERSON ( 'UNSPECIFIED', 'UNSPECIFIED', 'UNSPECIFIED', ('UNSPECIFIED'), ('UNSPECIFIED'), ('UNSPECIFIED') ) ;
#108 = PERSON_AND_ORGANIZATION ( #107, #59 ) ;
#109 = VECTOR ( 'NONE', #1, 1000.000000000000000 ) ;
#110 = CC_DESIGN_APPROVAL ( #158, ( #70 ) ) ;
#111 = APPROVAL_PERSON_ORGANIZATION ( #6, #131, #13 ) ;
#112 = CARTESIAN_POINT ( 'NONE',  ( 25.00000000000000000, 3.061616997868383000E-015, 2.000000000000000000 ) ) ;
#113 = CARTESIAN_POINT ( 'NONE',  ( 0.0000000000000000000, 0.0000000000000000000, 2.000000000000000000 ) ) ;
#114 = ADVANCED_FACE ( 'NONE', ( #105 ), #166, .F. ) ;
#115 = PRODUCT_RELATED_PRODUCT_CATEGORY ( 'detail', '', ( #91 ) ) ;
#116 = PERSON_AND_ORGANIZATION_ROLE ( 'classification_officer' ) ;
#117 = AXIS2_PLACEMENT_3D ( 'NONE', #156, #25, #69 ) ;
#118 = LOCAL_TIME ( 9, 16, 10.00000000000000000, #100 ) ;
#119 = CIRCLE ( 'NONE', #132, 25.00000000000000000 ) ;
#120 =( LENGTH_UNIT ( ) NAMED_UNIT ( * ) SI_UNIT ( .MILLI., .METRE. ) );
#121 = ORIENTED_EDGE ( 'NONE', *, *, #65, .F. ) ;
#122 = CC_DESIGN_DATE_AND_TIME_ASSIGNMENT ( #170, #16, ( #70 ) ) ;
#123 = ORIENTED_EDGE ( 'NONE', *, *, #149, .F. ) ;
#124 = DIRECTION ( 'NONE',  ( -0.0000000000000000000, -0.0000000000000000000, -1.000000000000000000 ) ) ;
#125 = ORIENTED_EDGE ( 'NONE', *, *, #77, .F. ) ;
#126 = DIRECTION ( 'NONE',  ( 0.0000000000000000000, 0.0000000000000000000, 1.000000000000000000 ) ) ;
#127 = CARTESIAN_POINT ( 'NONE',  ( 0.0000000000000000000, 0.0000000000000000000, 0.0000000000000000000 ) ) ;
#128 =( NAMED_UNIT ( * ) SI_UNIT ( $, .STERADIAN. ) SOLID_ANGLE_UNIT ( ) );
#129 = CIRCLE ( 'NONE', #54, 25.00000000000000000 ) ;
#130 = LINE ( 'NONE', #112, #38 ) ;
#131 = APPROVAL ( #56, 'UNSPECIFIED' ) ;
#132 = AXIS2_PLACEMENT_3D ( 'NONE', #81, #137, #52 ) ;
#133 = DIRECTION ( 'NONE',  ( -0.0000000000000000000, -0.0000000000000000000, -1.000000000000000000 ) ) ;
#134 = PERSON_AND_ORGANIZATION ( #107, #59 ) ;
#135 = CARTESIAN_POINT ( 'NONE',  ( 0.0000000000000000000, 0.0000000000000000000, 2.000000000000000000 ) ) ;
#136 = SHAPE_DEFINITION_REPRESENTATION ( #73, #19 ) ;
#137 = DIRECTION ( 'NONE',  ( 0.0000000000000000000, 0.0000000000000000000, 1.000000000000000000 ) ) ;
#138 = DIRECTION ( 'NONE',  ( 0.0000000000000000000, 0.0000000000000000000, 1.000000000000000000 ) ) ;
#139 = APPROVAL_DATE_TIME ( #172, #131 ) ;
#140 = DATE_TIME_ROLE ( 'classification_date' ) ;
#141 =( NAMED_UNIT ( * ) PLANE_ANGLE_UNIT ( ) SI_UNIT ( $, .RADIAN. ) );
#142 = APPROVAL_ROLE ( '' ) ;
#143 = LOCAL_TIME ( 9, 16, 10.00000000000000000, #147 ) ;
#144 = ORIENTED_EDGE ( 'NONE', *, *, #92, .T. ) ;
#145 = COORDINATED_UNIVERSAL_TIME_OFFSET ( 5, 0, .BEHIND. ) ;
#146 = PRODUCT_DEFINITION_FORMATION_WITH_SPECIFIED_SOURCE ( 'ANY', '', #91, .NOT_KNOWN. ) ;
#147 = COORDINATED_UNIVERSAL_TIME_OFFSET ( 5, 0, .BEHIND. ) ;
#148 = CYLINDRICAL_SURFACE ( 'NONE', #103, 25.00000000000000000 ) ;
#149 = EDGE_CURVE ( 'NONE', #7, #86, #129, .T. ) ;
#150 = DIRECTION ( 'NONE',  ( -0.0000000000000000000, -0.0000000000000000000, -1.000000000000000000 ) ) ;
#151 = EDGE_LOOP ( 'NONE', ( #15, #90, #97, #152 ) ) ;
#152 = ORIENTED_EDGE ( 'NONE', *, *, #165, .F. ) ;
#153 = DIRECTION ( 'NONE',  ( 1.000000000000000000, 0.0000000000000000000, 0.0000000000000000000 ) ) ;
#154 = CC_DESIGN_PERSON_AND_ORGANIZATION_ASSIGNMENT ( #134, #167, ( #146 ) ) ;
#155 = DIRECTION ( 'NONE',  ( 0.0000000000000000000, 0.0000000000000000000, 1.000000000000000000 ) ) ;
#156 = CARTESIAN_POINT ( 'NONE',  ( 0.0000000000000000000, 0.0000000000000000000, 0.0000000000000000000 ) ) ;
#157 = ORIENTED_EDGE ( 'NONE', *, *, #5, .T. ) ;
#158 = APPROVAL ( #101, 'UNSPECIFIED' ) ;
#159 = CALENDAR_DATE ( 2017, 24, 8 ) ;
#160 = CC_DESIGN_PERSON_AND_ORGANIZATION_ASSIGNMENT ( #104, #72, ( #91 ) ) ;
#161 = EDGE_LOOP ( 'NONE', ( #121, #125, #94, #144 ) ) ;
#162 = EDGE_LOOP ( 'NONE', ( #78, #123 ) ) ;
#163 = CARTESIAN_POINT ( 'NONE',  ( 25.00000000000000000, 3.061616997868383000E-015, 2.000000000000000000 ) ) ;
#164 = PERSON_AND_ORGANIZATION ( #107, #59 ) ;
#165 = EDGE_CURVE ( 'NONE', #57, #86, #35, .T. ) ;
#166 = PLANE ( 'NONE',  #12 ) ;
#167 = PERSON_AND_ORGANIZATION_ROLE ( 'creator' ) ;
#168 = CALENDAR_DATE ( 2017, 24, 8 ) ;
#169 = CC_DESIGN_PERSON_AND_ORGANIZATION_ASSIGNMENT ( #164, #42, ( #146 ) ) ;
#170 = DATE_AND_TIME ( #3, #18 ) ;
#171 = APPROVAL_PERSON_ORGANIZATION ( #108, #158, #142 ) ;
#172 = DATE_AND_TIME ( #32, #143 ) ;
#173 = DATE_AND_TIME ( #159, #106 ) ;
#174 = DIRECTION ( 'NONE',  ( 0.0000000000000000000, 0.0000000000000000000, 1.000000000000000000 ) ) ;
#175 = CARTESIAN_POINT ( 'NONE',  ( 0.0000000000000000000, 0.0000000000000000000, 2.000000000000000000 ) ) ;
ENDSEC;
END-ISO-10303-21;
