ISO-10303-21;
HEADER;
FILE_DESCRIPTION (( 'STEP AP203' ),
    '1' );
FILE_NAME ('22004-E0W.STEP',
    '2018-06-01T18:12:55',
    ( 'admin' ),
    ( '' ),
    'SwSTEP 2.0',
    'SolidWorks 2016',
    '' );
FILE_SCHEMA (( 'CONFIG_CONTROL_DESIGN' ));
ENDSEC;

DATA;
#1 = PERSON_AND_ORGANIZATION ( #156, #256 ) ;
#2 = DIRECTION ( 'NONE',  ( -1.000000000000000000, 0.0000000000000000000, 0.0000000000000000000 ) ) ;
#3 =( NAMED_UNIT ( * ) SI_UNIT ( $, .STERADIAN. ) SOLID_ANGLE_UNIT ( ) );
#4 = APPROVAL_STATUS ( 'not_yet_approved' ) ;
#5 = CONICAL_SURFACE ( 'NONE', #213, 0.4999999999999999400, 0.7562867776345831800 ) ;
#6 = CARTESIAN_POINT ( 'NONE',  ( 0.0000000000000000000, 0.0000000000000000000, 4.201296195536746900 ) ) ;
#7 = AXIS2_PLACEMENT_3D ( 'NONE', #312, #121, #292 ) ;
#8 = VECTOR ( 'NONE', #324, 39.37007874015748900 ) ;
#9 = DATE_AND_TIME ( #321, #320 ) ;
#10 = DIRECTION ( 'NONE',  ( 0.0000000000000000000, -1.000000000000000000, -1.878145495644181100E-016 ) ) ;
#11 = EDGE_LOOP ( 'NONE', ( #40, #157, #278 ) ) ;
#12 = ORIENTED_EDGE ( 'NONE', *, *, #104, .T. ) ;
#13 = CARTESIAN_POINT ( 'NONE',  ( 0.0000000000000000000, 0.4944322300693966800, 0.09322671006490887400 ) ) ;
#14 = DIMENSIONAL_EXPONENTS ( 1.000000000000000000, 0.0000000000000000000, 0.0000000000000000000, 0.0000000000000000000, 0.0000000000000000000, 0.0000000000000000000, 0.0000000000000000000 ) ;
#15 = AXIS2_PLACEMENT_3D ( 'NONE', #16, #218, #33 ) ;
#16 = CARTESIAN_POINT ( 'NONE',  ( 0.0000000000000000000, 1.575784320720410200E-015, -0.07979521629263630600 ) ) ;
#17 = DATE_AND_TIME ( #139, #288 ) ;
#18 = CC_DESIGN_PERSON_AND_ORGANIZATION_ASSIGNMENT ( #230, #71, ( #198 ) ) ;
#19 = AXIS2_PLACEMENT_3D ( 'NONE', #25, #41, #64 ) ;
#20 = DATE_AND_TIME ( #329, #102 ) ;
#21 = ADVANCED_FACE ( 'NONE', ( #260 ), #82, .F. ) ;
#22 = EDGE_LOOP ( 'NONE', ( #125, #330, #190, #291 ) ) ;
#23 = CLOSED_SHELL ( 'NONE', ( #111, #224, #137, #249, #165, #21, #168, #118, #281, #326 ) ) ;
#24 = ORIENTED_EDGE ( 'NONE', *, *, #98, .F. ) ;
#25 = CARTESIAN_POINT ( 'NONE',  ( 0.0000000000000000000, 1.575784320720410200E-015, -0.07979521629263630600 ) ) ;
#26 = LOCAL_TIME ( 14, 12, 55.00000000000000000, #57 ) ;
#27 = FACE_OUTER_BOUND ( 'NONE', #65, .T. ) ;
#28 = COORDINATED_UNIVERSAL_TIME_OFFSET ( 5, 0, .BEHIND. ) ;
#29 = ORIENTED_EDGE ( 'NONE', *, *, #217, .T. ) ;
#30 = APPLICATION_PROTOCOL_DEFINITION ( 'international standard', 'config_control_design', 1994, #100 ) ;
#31 = VERTEX_POINT ( 'NONE', #181 ) ;
#32 = DIRECTION ( 'NONE',  ( 0.0000000000000000000, -1.000000000000000000, -1.271727305516534400E-016 ) ) ;
#33 = DIRECTION ( 'NONE',  ( 0.0000000000000000000, -1.000000000000000000, -1.734663742194279800E-016 ) ) ;
#34 = DIRECTION ( 'NONE',  ( -1.000000000000000000, 1.224646799147353200E-016, 2.249565377136128300E-032 ) ) ;
#35 = PERSON_AND_ORGANIZATION ( #156, #256 ) ;
#36 = CC_DESIGN_PERSON_AND_ORGANIZATION_ASSIGNMENT ( #252, #293, ( #198 ) ) ;
#37 =( LENGTH_UNIT ( ) NAMED_UNIT ( * ) SI_UNIT ( $, .METRE. ) );
#38 = APPROVAL ( #221, 'UNSPECIFIED' ) ;
#39 = CIRCLE ( 'NONE', #272, 4.137716535433070500 ) ;
#40 = ORIENTED_EDGE ( 'NONE', *, *, #115, .F. ) ;
#41 = DIRECTION ( 'NONE',  ( 0.0000000000000000000, 1.836909530733637100E-016, -1.000000000000000000 ) ) ;
#42 = CARTESIAN_POINT ( 'NONE',  ( 0.0000000000000000000, 1.052232865006996400E-015, -0.09390065485695366100 ) ) ;
#43 = AXIS2_PLACEMENT_3D ( 'NONE', #158, #114, #106 ) ;
#44 = EDGE_CURVE ( 'NONE', #88, #96, #39, .T. ) ;
#45 = ORIENTED_EDGE ( 'NONE', *, *, #128, .T. ) ;
#46 = CONICAL_SURFACE ( 'NONE', #80, 0.4999999999999999400, 0.7853981633973946600 ) ;
#47 = ADVANCED_BREP_SHAPE_REPRESENTATION ( '22004-E0W', ( #307, #317 ), #113 ) ;
#48 = SPHERICAL_SURFACE ( 'NONE', #146, 8.592559055118110600 ) ;
#49 = EDGE_CURVE ( 'NONE', #110, #124, #112, .T. ) ;
#50 = ORIENTED_EDGE ( 'NONE', *, *, #87, .T. ) ;
#51 = ORIENTED_EDGE ( 'NONE', *, *, #142, .T. ) ;
#52 = CARTESIAN_POINT ( 'NONE',  ( 6.123233995736764800E-017, 0.4999999999999999400, -0.07146683298193225200 ) ) ;
#53 = AXIS2_PLACEMENT_3D ( 'NONE', #207, #107, #227 ) ;
#54 = EDGE_LOOP ( 'NONE', ( #238, #77, #51, #308 ) ) ;
#55 = PERSON_AND_ORGANIZATION ( #156, #256 ) ;
#56 = DIRECTION ( 'NONE',  ( -0.0000000000000000000, -1.836909530733566100E-016, 1.000000000000000000 ) ) ;
#57 = COORDINATED_UNIVERSAL_TIME_OFFSET ( 5, 0, .BEHIND. ) ;
#58 = DIRECTION ( 'NONE',  ( 0.0000000000000000000, 0.0000000000000000000, 1.000000000000000000 ) ) ;
#59 = ORIENTED_EDGE ( 'NONE', *, *, #104, .F. ) ;
#60 = VERTEX_POINT ( 'NONE', #42 ) ;
#61 = CARTESIAN_POINT ( 'NONE',  ( 0.0000000000000000000, -0.4999999999999999400, -0.07146683298193244600 ) ) ;
#62 = APPROVAL_DATE_TIME ( #235, #38 ) ;
#63 = CC_DESIGN_APPROVAL ( #38, ( #103 ) ) ;
#64 = DIRECTION ( 'NONE',  ( 0.0000000000000000000, -1.000000000000000000, -1.734663742194279800E-016 ) ) ;
#65 = EDGE_LOOP ( 'NONE', ( #109, #92, #267, #108 ) ) ;
#66 = CIRCLE ( 'NONE', #250, 0.4999999999999999400 ) ;
#67 = DIRECTION ( 'NONE',  ( 0.0000000000000000000, -1.000000000000000000, -1.878145495644181100E-016 ) ) ;
#68 = ORIENTED_EDGE ( 'NONE', *, *, #128, .F. ) ;
#69 = DIRECTION ( 'NONE',  ( 1.000000000000000000, 0.0000000000000000000, 0.0000000000000000000 ) ) ;
#70 = AXIS2_PLACEMENT_3D ( 'NONE', #170, #318, #248 ) ;
#71 = PERSON_AND_ORGANIZATION_ROLE ( 'design_supplier' ) ;
#72 = EDGE_CURVE ( 'NONE', #124, #110, #327, .T. ) ;
#73 = FACE_OUTER_BOUND ( 'NONE', #54, .T. ) ;
#74 = EDGE_CURVE ( 'NONE', #31, #325, #202, .T. ) ;
#75 = EDGE_LOOP ( 'NONE', ( #59, #231, #242 ) ) ;
#76 = DIRECTION ( 'NONE',  ( 0.0000000000000000000, -0.6862252245832383100, 0.7273891263592575700 ) ) ;
#77 = ORIENTED_EDGE ( 'NONE', *, *, #183, .T. ) ;
#78 = APPROVAL_ROLE ( '' ) ;
#79 = LINE ( 'NONE', #236, #138 ) ;
#80 = AXIS2_PLACEMENT_3D ( 'NONE', #150, #81, #187 ) ;
#81 = DIRECTION ( 'NONE',  ( 0.0000000000000000000, 1.836909530733566100E-016, -1.000000000000000000 ) ) ;
#82 = SPHERICAL_SURFACE ( 'NONE', #255, 4.137716535433070500 ) ;
#83 = EDGE_LOOP ( 'NONE', ( #117, #167, #90, #68 ) ) ;
#84 = AXIS2_PLACEMENT_3D ( 'NONE', #240, #300, #304 ) ;
#85 = CIRCLE ( 'NONE', #266, 0.4999999999999999400 ) ;
#86 = PRODUCT_RELATED_PRODUCT_CATEGORY ( 'detail', '', ( #177 ) ) ;
#87 = EDGE_CURVE ( 'NONE', #284, #96, #188, .T. ) ;
#88 = VERTEX_POINT ( 'NONE', #93 ) ;
#89 = CARTESIAN_POINT ( 'NONE',  ( 6.027012649159835800E-017, 0.4921429307908284900, -0.07979521629263590400 ) ) ;
#90 = ORIENTED_EDGE ( 'NONE', *, *, #94, .F. ) ;
#91 = EDGE_LOOP ( 'NONE', ( #24, #147, #29, #166 ) ) ;
#92 = ORIENTED_EDGE ( 'NONE', *, *, #87, .F. ) ;
#93 = CARTESIAN_POINT ( 'NONE',  ( 0.0000000000000000000, 1.013423159485947100E-015, 0.06357966010367695200 ) ) ;
#94 = EDGE_CURVE ( 'NONE', #325, #31, #282, .T. ) ;
#95 = DIRECTION ( 'NONE',  ( -1.000000000000000000, 0.0000000000000000000, -0.0000000000000000000 ) ) ;
#96 = VERTEX_POINT ( 'NONE', #211 ) ;
#97 = DATE_TIME_ROLE ( 'classification_date' ) ;
#98 = EDGE_CURVE ( 'NONE', #31, #316, #306, .T. ) ;
#99 = DESIGN_CONTEXT ( 'detailed design', #259, 'design' ) ;
#100 = APPLICATION_CONTEXT ( 'configuration controlled 3d designs of mechanical parts and assemblies' ) ;
#101 = EDGE_CURVE ( 'NONE', #316, #243, #85, .T. ) ;
#102 = LOCAL_TIME ( 14, 12, 55.00000000000000000, #28 ) ;
#103 = PRODUCT_DEFINITION ( 'UNKNOWN', '', #198, #99 ) ;
#104 = EDGE_CURVE ( 'NONE', #88, #284, #216, .T. ) ;
#105 = APPROVAL_DATE_TIME ( #20, #237 ) ;
#106 = DIRECTION ( 'NONE',  ( 0.0000000000000000000, -1.000000000000000000, -1.878145495644181100E-016 ) ) ;
#107 = DIRECTION ( 'NONE',  ( -0.0000000000000000000, -1.836909530733637100E-016, 1.000000000000000000 ) ) ;
#108 = ORIENTED_EDGE ( 'NONE', *, *, #101, .T. ) ;
#109 = ORIENTED_EDGE ( 'NONE', *, *, #183, .F. ) ;
#110 = VERTEX_POINT ( 'NONE', #176 ) ;
#111 = ADVANCED_FACE ( 'NONE', ( #286 ), #244, .T. ) ;
#112 = CIRCLE ( 'NONE', #19, 0.4921429307908303800 ) ;
#113 =( GEOMETRIC_REPRESENTATION_CONTEXT ( 3 ) GLOBAL_UNCERTAINTY_ASSIGNED_CONTEXT ( ( #164 ) ) GLOBAL_UNIT_ASSIGNED_CONTEXT ( ( #294, #297, #3 ) ) REPRESENTATION_CONTEXT ( 'NONE', 'WORKASPACE' ) );
#114 = DIRECTION ( 'NONE',  ( -0.0000000000000000000, -1.836909530733566100E-016, 1.000000000000000000 ) ) ;
#115 = EDGE_CURVE ( 'NONE', #60, #110, #179, .T. ) ;
#116 = DIRECTION ( 'NONE',  ( -0.0000000000000000000, -1.836909530733637100E-016, 1.000000000000000000 ) ) ;
#117 = ORIENTED_EDGE ( 'NONE', *, *, #72, .F. ) ;
#118 = ADVANCED_FACE ( 'NONE', ( #214 ), #310, .T. ) ;
#119 = VECTOR ( 'NONE', #143, 39.37007874015748900 ) ;
#120 = SECURITY_CLASSIFICATION ( '', '', #222 ) ;
#121 = DIRECTION ( 'NONE',  ( -0.0000000000000000000, -1.836909530733637100E-016, 1.000000000000000000 ) ) ;
#122 = LINE ( 'NONE', #61, #149 ) ;
#123 = AXIS2_PLACEMENT_3D ( 'NONE', #302, #290, #285 ) ;
#124 = VERTEX_POINT ( 'NONE', #89 ) ;
#125 = ORIENTED_EDGE ( 'NONE', *, *, #94, .T. ) ;
#126 = ORIENTED_EDGE ( 'NONE', *, *, #115, .T. ) ;
#127 = CC_DESIGN_PERSON_AND_ORGANIZATION_ASSIGNMENT ( #226, #197, ( #120 ) ) ;
#128 = EDGE_CURVE ( 'NONE', #110, #325, #122, .T. ) ;
#129 = ORIENTED_EDGE ( 'NONE', *, *, #49, .T. ) ;
#130 = DIRECTION ( 'NONE',  ( 0.0000000000000000000, -1.000000000000000000, -1.878145495644181100E-016 ) ) ;
#131 = EDGE_CURVE ( 'NONE', #124, #31, #233, .T. ) ;
#132 = CARTESIAN_POINT ( 'NONE',  ( 0.0000000000000000000, -0.4999999999999999400, -0.07146683298193246000 ) ) ;
#133 = FACE_OUTER_BOUND ( 'NONE', #273, .T. ) ;
#134 = CC_DESIGN_DATE_AND_TIME_ASSIGNMENT ( #192, #171, ( #103 ) ) ;
#135 = DIRECTION ( 'NONE',  ( 0.0000000000000000000, -1.000000000000000000, -1.271727305516534400E-016 ) ) ;
#136 = DIRECTION ( 'NONE',  ( 1.000000000000000000, -1.224646799147353200E-016, -2.249565377136128300E-032 ) ) ;
#137 = ADVANCED_FACE ( 'NONE', ( #228 ), #205, .T. ) ;
#138 = VECTOR ( 'NONE', #151, 39.37007874015748100 ) ;
#139 = CALENDAR_DATE ( 2018, 1, 6 ) ;
#140 = CC_DESIGN_PERSON_AND_ORGANIZATION_ASSIGNMENT ( #246, #174, ( #103 ) ) ;
#141 = CARTESIAN_POINT ( 'NONE',  ( 0.0000000000000000000, 0.0000000000000000000, 8.498658400261156500 ) ) ;
#142 = EDGE_CURVE ( 'NONE', #243, #316, #66, .T. ) ;
#143 = DIRECTION ( 'NONE',  ( 8.659560562354466900E-017, -0.7071067811865093800, -0.7071067811865854300 ) ) ;
#144 = DIRECTION ( 'NONE',  ( 1.000000000000000000, 0.0000000000000000000, 0.0000000000000000000 ) ) ;
#145 = DIRECTION ( 'NONE',  ( 0.0000000000000000000, 0.7071067811865097100, -0.7071067811865853200 ) ) ;
#146 = AXIS2_PLACEMENT_3D ( 'NONE', #261, #269, #32 ) ;
#147 = ORIENTED_EDGE ( 'NONE', *, *, #74, .T. ) ;
#148 = AXIS2_PLACEMENT_3D ( 'NONE', #253, #144, #135 ) ;
#149 = VECTOR ( 'NONE', #76, 39.37007874015748900 ) ;
#150 = CARTESIAN_POINT ( 'NONE',  ( 0.0000000000000000000, -4.423145898146438300E-018, 0.08765894013430541900 ) ) ;
#151 = DIRECTION ( 'NONE',  ( -0.0000000000000000000, -1.836909530733566100E-016, 1.000000000000000000 ) ) ;
#152 = ORIENTED_EDGE ( 'NONE', *, *, #49, .F. ) ;
#153 = ORIENTED_EDGE ( 'NONE', *, *, #131, .F. ) ;
#154 = LINE ( 'NONE', #189, #119 ) ;
#155 = CARTESIAN_POINT ( 'NONE',  ( 6.123233995736764800E-017, 0.4999999999999999400, 0.08765894013430550200 ) ) ;
#156 = PERSON ( 'UNSPECIFIED', 'UNSPECIFIED', 'UNSPECIFIED', ('UNSPECIFIED'), ('UNSPECIFIED'), ('UNSPECIFIED') ) ;
#157 = ORIENTED_EDGE ( 'NONE', *, *, #195, .T. ) ;
#158 = CARTESIAN_POINT ( 'NONE',  ( 0.0000000000000000000, 0.0000000000000000000, 0.06357966010367667500 ) ) ;
#159 = EDGE_CURVE ( 'NONE', #96, #284, #262, .T. ) ;
#160 = CARTESIAN_POINT ( 'NONE',  ( 0.0000000000000000000, -0.4999999999999999400, 0.08765894013430533500 ) ) ;
#161 = CARTESIAN_POINT ( 'NONE',  ( 0.0000000000000000000, 0.0000000000000000000, 0.06357966010367667500 ) ) ;
#162 = COORDINATED_UNIVERSAL_TIME_OFFSET ( 5, 0, .BEHIND. ) ;
#163 = APPROVAL_PERSON_ORGANIZATION ( #35, #38, #265 ) ;
#164 = UNCERTAINTY_MEASURE_WITH_UNIT (LENGTH_MEASURE( 1.000000000000000100E-005 ), #294, 'distance_accuracy_value', 'NONE');
#165 = ADVANCED_FACE ( 'NONE', ( #184 ), #328, .F. ) ;
#166 = ORIENTED_EDGE ( 'NONE', *, *, #101, .F. ) ;
#167 = ORIENTED_EDGE ( 'NONE', *, *, #131, .T. ) ;
#168 = ADVANCED_FACE ( 'NONE', ( #229 ), #48, .T. ) ;
#169 = CC_DESIGN_DATE_AND_TIME_ASSIGNMENT ( #9, #97, ( #120 ) ) ;
#170 = CARTESIAN_POINT ( 'NONE',  ( 0.0000000000000000000, -5.445894863192140100E-018, 0.09322671006490873500 ) ) ;
#171 = DATE_TIME_ROLE ( 'creation_date' ) ;
#172 = EDGE_LOOP ( 'NONE', ( #279, #12, #50 ) ) ;
#173 = CALENDAR_DATE ( 2018, 1, 6 ) ;
#174 = PERSON_AND_ORGANIZATION_ROLE ( 'creator' ) ;
#175 = CC_DESIGN_PERSON_AND_ORGANIZATION_ASSIGNMENT ( #1, #257, ( #177 ) ) ;
#176 = CARTESIAN_POINT ( 'NONE',  ( 0.0000000000000000000, -0.4921429307908253800, -0.07979521629263597300 ) ) ;
#177 = PRODUCT ( '22004-E0W', '22004-E0W', '', ( #280 ) ) ;
#178 = CARTESIAN_POINT ( 'NONE',  ( 0.0000000000000000000, 2.480681902411008900E-017, -0.07146683298193234900 ) ) ;
#179 = CIRCLE ( 'NONE', #191, 8.592559055118110600 ) ;
#180 = LINE ( 'NONE', #209, #193 ) ;
#181 = CARTESIAN_POINT ( 'NONE',  ( 6.123233995736764800E-017, 0.4999999999999999400, -0.07146683298193228000 ) ) ;
#182 = EDGE_CURVE ( 'NONE', #284, #316, #180, .T. ) ;
#183 = EDGE_CURVE ( 'NONE', #96, #243, #154, .T. ) ;
#184 = FACE_OUTER_BOUND ( 'NONE', #75, .T. ) ;
#185 = CARTESIAN_POINT ( 'NONE',  ( 0.0000000000000000000, 2.480681902410998800E-017, -0.07146683298193236300 ) ) ;
#186 = DIRECTION ( 'NONE',  ( 0.0000000000000000000, -1.000000000000000000, -1.707404996040164800E-016 ) ) ;
#187 = DIRECTION ( 'NONE',  ( 0.0000000000000000000, 1.000000000000000000, 1.707404996040164800E-016 ) ) ;
#188 = CIRCLE ( 'NONE', #70, 0.4944322300693971800 ) ;
#189 = CARTESIAN_POINT ( 'NONE',  ( 6.123233995736764800E-017, -0.4999999999999999400, 0.08765894013430533500 ) ) ;
#190 = ORIENTED_EDGE ( 'NONE', *, *, #142, .F. ) ;
#191 = AXIS2_PLACEMENT_3D ( 'NONE', #296, #95, #58 ) ;
#192 = DATE_AND_TIME ( #173, #268 ) ;
#193 = VECTOR ( 'NONE', #145, 39.37007874015748100 ) ;
#194 = CARTESIAN_POINT ( 'NONE',  ( 0.0000000000000000000, -4.423145898146438300E-018, 0.08765894013430541900 ) ) ;
#195 = EDGE_CURVE ( 'NONE', #60, #124, #203, .T. ) ;
#196 = CARTESIAN_POINT ( 'NONE',  ( 6.123233995736764800E-017, 0.4999999999999999400, 0.06357966010367675800 ) ) ;
#197 = PERSON_AND_ORGANIZATION_ROLE ( 'classification_officer' ) ;
#198 = PRODUCT_DEFINITION_FORMATION_WITH_SPECIFIED_SOURCE ( 'ANY', '', #177, .NOT_KNOWN. ) ;
#199 = APPLICATION_PROTOCOL_DEFINITION ( 'international standard', 'config_control_design', 1994, #259 ) ;
#200 = DIRECTION ( 'NONE',  ( 1.000000000000000000, 0.0000000000000000000, 0.0000000000000000000 ) ) ;
#201 = DIRECTION ( 'NONE',  ( 0.0000000000000000000, 0.0000000000000000000, -1.000000000000000000 ) ) ;
#202 = CIRCLE ( 'NONE', #7, 0.4999999999999999400 ) ;
#203 = CIRCLE ( 'NONE', #232, 8.592559055118110600 ) ;
#204 = DIRECTION ( 'NONE',  ( -0.0000000000000000000, -1.836909530733566100E-016, 1.000000000000000000 ) ) ;
#205 = CYLINDRICAL_SURFACE ( 'NONE', #239, 0.4999999999999999400 ) ;
#206 = ORIENTED_EDGE ( 'NONE', *, *, #74, .F. ) ;
#207 = CARTESIAN_POINT ( 'NONE',  ( 0.0000000000000000000, 2.480681902411008900E-017, -0.07146683298193234900 ) ) ;
#208 = AXIS2_PLACEMENT_3D ( 'NONE', #311, #2, #283 ) ;
#209 = CARTESIAN_POINT ( 'NONE',  ( 0.0000000000000000000, 0.4999999999999999400, 0.08765894013430550200 ) ) ;
#210 = CC_DESIGN_APPROVAL ( #254, ( #198 ) ) ;
#211 = CARTESIAN_POINT ( 'NONE',  ( -6.055048479497744600E-017, -0.4944322300693960200, 0.09322671006490880500 ) ) ;
#212 = CC_DESIGN_SECURITY_CLASSIFICATION ( #120, ( #198 ) ) ;
#213 = AXIS2_PLACEMENT_3D ( 'NONE', #178, #298, #130 ) ;
#214 = FACE_OUTER_BOUND ( 'NONE', #91, .T. ) ;
#215 = DIRECTION ( 'NONE',  ( -1.224646799147353200E-016, -1.000000000000000000, 0.0000000000000000000 ) ) ;
#216 = CIRCLE ( 'NONE', #258, 4.137716535433070500 ) ;
#217 = EDGE_CURVE ( 'NONE', #325, #243, #79, .T. ) ;
#218 = DIRECTION ( 'NONE',  ( 0.0000000000000000000, 1.836909530733637100E-016, -1.000000000000000000 ) ) ;
#219 = FACE_OUTER_BOUND ( 'NONE', #11, .T. ) ;
#220 = COORDINATED_UNIVERSAL_TIME_OFFSET ( 5, 0, .BEHIND. ) ;
#221 = APPROVAL_STATUS ( 'not_yet_approved' ) ;
#222 = SECURITY_CLASSIFICATION_LEVEL ( 'unclassified' ) ;
#223 = CARTESIAN_POINT ( 'NONE',  ( 0.0000000000000000000, 0.0000000000000000000, 4.201296195536746900 ) ) ;
#224 = ADVANCED_FACE ( 'NONE', ( #73 ), #287, .T. ) ;
#225 = DIRECTION ( 'NONE',  ( 0.0000000000000000000, 1.000000000000000000, 1.320461646065049600E-016 ) ) ;
#226 = PERSON_AND_ORGANIZATION ( #156, #256 ) ;
#227 = DIRECTION ( 'NONE',  ( 0.0000000000000000000, -1.000000000000000000, -1.878145495644181100E-016 ) ) ;
#228 = FACE_OUTER_BOUND ( 'NONE', #22, .T. ) ;
#229 = FACE_OUTER_BOUND ( 'NONE', #251, .T. ) ;
#230 = PERSON_AND_ORGANIZATION ( #156, #256 ) ;
#231 = ORIENTED_EDGE ( 'NONE', *, *, #44, .T. ) ;
#232 = AXIS2_PLACEMENT_3D ( 'NONE', #141, #136, #234 ) ;
#233 = LINE ( 'NONE', #52, #8 ) ;
#234 = DIRECTION ( 'NONE',  ( 1.224646799147353200E-016, 1.000000000000000000, 0.0000000000000000000 ) ) ;
#235 = DATE_AND_TIME ( #263, #26 ) ;
#236 = CARTESIAN_POINT ( 'NONE',  ( 0.0000000000000000000, -0.4999999999999999400, 0.06357966010367657700 ) ) ;
#237 = APPROVAL ( #4, 'UNSPECIFIED' ) ;
#238 = ORIENTED_EDGE ( 'NONE', *, *, #159, .F. ) ;
#239 = AXIS2_PLACEMENT_3D ( 'NONE', #161, #56, #10 ) ;
#240 = CARTESIAN_POINT ( 'NONE',  ( 0.0000000000000000000, -4.423145898146438300E-018, 0.08765894013430541900 ) ) ;
#241 = CARTESIAN_POINT ( 'NONE',  ( 0.0000000000000000000, 0.0000000000000000000, 4.201296195536746900 ) ) ;
#242 = ORIENTED_EDGE ( 'NONE', *, *, #159, .T. ) ;
#243 = VERTEX_POINT ( 'NONE', #160 ) ;
#244 = CONICAL_SURFACE ( 'NONE', #53, 0.4999999999999999400, 0.7562867776345831800 ) ;
#245 = APPROVAL_DATE_TIME ( #17, #254 ) ;
#246 = PERSON_AND_ORGANIZATION ( #156, #256 ) ;
#247 = AXIS2_PLACEMENT_3D ( 'NONE', #185, #116, #67 ) ;
#248 = DIRECTION ( 'NONE',  ( 0.0000000000000000000, -1.000000000000000000, -1.726631975225925000E-016 ) ) ;
#249 = ADVANCED_FACE ( 'NONE', ( #219 ), #303, .T. ) ;
#250 = AXIS2_PLACEMENT_3D ( 'NONE', #323, #322, #319 ) ;
#251 = EDGE_LOOP ( 'NONE', ( #309, #126, #129 ) ) ;
#252 = PERSON_AND_ORGANIZATION ( #156, #256 ) ;
#253 = CARTESIAN_POINT ( 'NONE',  ( 0.0000000000000000000, 0.0000000000000000000, 8.498658400261156500 ) ) ;
#254 = APPROVAL ( #276, 'UNSPECIFIED' ) ;
#255 = AXIS2_PLACEMENT_3D ( 'NONE', #241, #289, #225 ) ;
#256 = ORGANIZATION ( 'UNSPECIFIED', 'UNSPECIFIED', '' ) ;
#257 = PERSON_AND_ORGANIZATION_ROLE ( 'design_owner' ) ;
#258 = AXIS2_PLACEMENT_3D ( 'NONE', #223, #69, #201 ) ;
#259 = APPLICATION_CONTEXT ( 'configuration controlled 3d designs of mechanical parts and assemblies' ) ;
#260 = FACE_OUTER_BOUND ( 'NONE', #172, .T. ) ;
#261 = CARTESIAN_POINT ( 'NONE',  ( 0.0000000000000000000, 0.0000000000000000000, 8.498658400261156500 ) ) ;
#262 = CIRCLE ( 'NONE', #123, 0.4944322300693971800 ) ;
#263 = CALENDAR_DATE ( 2018, 1, 6 ) ;
#264 = CARTESIAN_POINT ( 'NONE',  ( 0.0000000000000000000, 0.0000000000000000000, 0.0000000000000000000 ) ) ;
#265 = APPROVAL_ROLE ( '' ) ;
#266 = AXIS2_PLACEMENT_3D ( 'NONE', #194, #204, #186 ) ;
#267 = ORIENTED_EDGE ( 'NONE', *, *, #182, .T. ) ;
#268 = LOCAL_TIME ( 14, 12, 55.00000000000000000, #162 ) ;
#269 = DIRECTION ( 'NONE',  ( 1.000000000000000000, 0.0000000000000000000, 0.0000000000000000000 ) ) ;
#270 = APPROVAL_PERSON_ORGANIZATION ( #275, #254, #315 ) ;
#271 = COORDINATED_UNIVERSAL_TIME_OFFSET ( 5, 0, .BEHIND. ) ;
#272 = AXIS2_PLACEMENT_3D ( 'NONE', #6, #34, #215 ) ;
#273 = EDGE_LOOP ( 'NONE', ( #153, #152, #45, #206 ) ) ;
#274 = PRODUCT_DEFINITION_SHAPE ( 'NONE', 'NONE',  #103 ) ;
#275 = PERSON_AND_ORGANIZATION ( #156, #256 ) ;
#276 = APPROVAL_STATUS ( 'not_yet_approved' ) ;
#277 = APPROVAL_PERSON_ORGANIZATION ( #55, #237, #78 ) ;
#278 = ORIENTED_EDGE ( 'NONE', *, *, #72, .T. ) ;
#279 = ORIENTED_EDGE ( 'NONE', *, *, #44, .F. ) ;
#280 = MECHANICAL_CONTEXT ( 'NONE', #100, 'mechanical' ) ;
#281 = ADVANCED_FACE ( 'NONE', ( #27 ), #46, .T. ) ;
#282 = CIRCLE ( 'NONE', #247, 0.4999999999999999400 ) ;
#283 = DIRECTION ( 'NONE',  ( 0.0000000000000000000, 1.000000000000000000, 1.320461646065049600E-016 ) ) ;
#284 = VERTEX_POINT ( 'NONE', #13 ) ;
#285 = DIRECTION ( 'NONE',  ( 0.0000000000000000000, -1.000000000000000000, -1.726631975225925000E-016 ) ) ;
#286 = FACE_OUTER_BOUND ( 'NONE', #83, .T. ) ;
#287 = CONICAL_SURFACE ( 'NONE', #84, 0.4999999999999999400, 0.7853981633973946600 ) ;
#288 = LOCAL_TIME ( 14, 12, 55.00000000000000000, #271 ) ;
#289 = DIRECTION ( 'NONE',  ( -1.000000000000000000, 0.0000000000000000000, 0.0000000000000000000 ) ) ;
#290 = DIRECTION ( 'NONE',  ( -0.0000000000000000000, -1.836909530733566100E-016, 1.000000000000000000 ) ) ;
#291 = ORIENTED_EDGE ( 'NONE', *, *, #217, .F. ) ;
#292 = DIRECTION ( 'NONE',  ( 0.0000000000000000000, -1.000000000000000000, -1.878145495644181100E-016 ) ) ;
#293 = PERSON_AND_ORGANIZATION_ROLE ( 'creator' ) ;
#294 =( CONVERSION_BASED_UNIT ( 'INCH', #299 ) LENGTH_UNIT ( ) NAMED_UNIT ( #14 ) );
#295 = DIRECTION ( 'NONE',  ( 0.0000000000000000000, 0.0000000000000000000, 1.000000000000000000 ) ) ;
#296 = CARTESIAN_POINT ( 'NONE',  ( 0.0000000000000000000, 0.0000000000000000000, 8.498658400261156500 ) ) ;
#297 =( NAMED_UNIT ( * ) PLANE_ANGLE_UNIT ( ) SI_UNIT ( $, .RADIAN. ) );
#298 = DIRECTION ( 'NONE',  ( -0.0000000000000000000, -1.836909530733637100E-016, 1.000000000000000000 ) ) ;
#299 = LENGTH_MEASURE_WITH_UNIT ( LENGTH_MEASURE( 0.02539999999999999900 ), #37 );
#300 = DIRECTION ( 'NONE',  ( 0.0000000000000000000, 1.836909530733566100E-016, -1.000000000000000000 ) ) ;
#301 = SHAPE_DEFINITION_REPRESENTATION ( #274, #47 ) ;
#302 = CARTESIAN_POINT ( 'NONE',  ( 0.0000000000000000000, -5.445894863192140100E-018, 0.09322671006490873500 ) ) ;
#303 = SPHERICAL_SURFACE ( 'NONE', #148, 8.592559055118110600 ) ;
#304 = DIRECTION ( 'NONE',  ( 0.0000000000000000000, 1.000000000000000000, 1.707404996040164800E-016 ) ) ;
#305 = CC_DESIGN_APPROVAL ( #237, ( #120 ) ) ;
#306 = LINE ( 'NONE', #196, #314 ) ;
#307 = MANIFOLD_SOLID_BREP ( '22004-001-1-solid1', #23 ) ;
#308 = ORIENTED_EDGE ( 'NONE', *, *, #182, .F. ) ;
#309 = ORIENTED_EDGE ( 'NONE', *, *, #195, .F. ) ;
#310 = CYLINDRICAL_SURFACE ( 'NONE', #43, 0.4999999999999999400 ) ;
#311 = CARTESIAN_POINT ( 'NONE',  ( 0.0000000000000000000, 0.0000000000000000000, 4.201296195536746900 ) ) ;
#312 = CARTESIAN_POINT ( 'NONE',  ( 0.0000000000000000000, 2.480681902410998800E-017, -0.07146683298193236300 ) ) ;
#313 = DIRECTION ( 'NONE',  ( -0.0000000000000000000, -1.836909530733566100E-016, 1.000000000000000000 ) ) ;
#314 = VECTOR ( 'NONE', #313, 39.37007874015748100 ) ;
#315 = APPROVAL_ROLE ( '' ) ;
#316 = VERTEX_POINT ( 'NONE', #155 ) ;
#317 = AXIS2_PLACEMENT_3D ( 'NONE', #264, #295, #200 ) ;
#318 = DIRECTION ( 'NONE',  ( -0.0000000000000000000, -1.836909530733566100E-016, 1.000000000000000000 ) ) ;
#319 = DIRECTION ( 'NONE',  ( 0.0000000000000000000, -1.000000000000000000, -1.707404996040164800E-016 ) ) ;
#320 = LOCAL_TIME ( 14, 12, 55.00000000000000000, #220 ) ;
#321 = CALENDAR_DATE ( 2018, 1, 6 ) ;
#322 = DIRECTION ( 'NONE',  ( -0.0000000000000000000, -1.836909530733566100E-016, 1.000000000000000000 ) ) ;
#323 = CARTESIAN_POINT ( 'NONE',  ( 0.0000000000000000000, -4.423145898146438300E-018, 0.08765894013430541900 ) ) ;
#324 = DIRECTION ( 'NONE',  ( 8.403835247800364300E-017, 0.6862252245832380900, 0.7273891263592577900 ) ) ;
#325 = VERTEX_POINT ( 'NONE', #132 ) ;
#326 = ADVANCED_FACE ( 'NONE', ( #133 ), #5, .T. ) ;
#327 = CIRCLE ( 'NONE', #15, 0.4921429307908303800 ) ;
#328 = SPHERICAL_SURFACE ( 'NONE', #208, 4.137716535433070500 ) ;
#329 = CALENDAR_DATE ( 2018, 1, 6 ) ;
#330 = ORIENTED_EDGE ( 'NONE', *, *, #98, .T. ) ;
ENDSEC;
END-ISO-10303-21;
