ISO-10303-21;
HEADER;
FILE_DESCRIPTION (( 'STEP AP203' ),
    '1' );
FILE_NAME ('Web Model 84487.STEP',
    '2017-02-01T15:50:35',
    ( '' ),
    ( '' ),
    'SwSTEP 2.0',
    'SolidWorks 2016',
    '' );
FILE_SCHEMA (( 'CONFIG_CONTROL_DESIGN' ));
ENDSEC;

DATA;
#1 = APPROVAL_PERSON_ORGANIZATION ( #96, #53, #172 ) ;
#2 = CLOSED_SHELL ( 'NONE', ( #59, #39, #134, #108 ) ) ;
#3 = CC_DESIGN_PERSON_AND_ORGANIZATION_ASSIGNMENT ( #120, #82, ( #174 ) ) ;
#4 = PERSON_AND_ORGANIZATION ( #69, #118 ) ;
#5 = CARTESIAN_POINT ( 'NONE',  ( 0.0000000000000000000, 0.0000000000000000000, 2.000000000000000000 ) ) ;
#6 = DIRECTION ( 'NONE',  ( 0.0000000000000000000, 0.0000000000000000000, 1.000000000000000000 ) ) ;
#7 = LOCAL_TIME ( 10, 50, 35.00000000000000000, #51 ) ;
#8 = CALENDAR_DATE ( 2017, 1, 2 ) ;
#9 =( NAMED_UNIT ( * ) SI_UNIT ( $, .STERADIAN. ) SOLID_ANGLE_UNIT ( ) );
#10 = APPROVAL_STATUS ( 'not_yet_approved' ) ;
#11 = APPROVAL_ROLE ( '' ) ;
#12 = ORIENTED_EDGE ( 'NONE', *, *, #153, .F. ) ;
#13 = CALENDAR_DATE ( 2017, 1, 2 ) ;
#14 = ORIENTED_EDGE ( 'NONE', *, *, #160, .T. ) ;
#15 = DATE_AND_TIME ( #47, #70 ) ;
#16 = ORIENTED_EDGE ( 'NONE', *, *, #32, .T. ) ;
#17 = FACE_OUTER_BOUND ( 'NONE', #111, .T. ) ;
#18 = CARTESIAN_POINT ( 'NONE',  ( 12.50000000000000000, 1.530808498934191500E-015, 2.000000000000000000 ) ) ;
#19 = PLANE ( 'NONE',  #88 ) ;
#20 = APPROVAL_DATE_TIME ( #15, #53 ) ;
#21 = DIRECTION ( 'NONE',  ( 0.0000000000000000000, 0.0000000000000000000, 1.000000000000000000 ) ) ;
#22 = PERSON_AND_ORGANIZATION_ROLE ( 'classification_officer' ) ;
#23 = DATE_TIME_ROLE ( 'classification_date' ) ;
#24 =( LENGTH_UNIT ( ) NAMED_UNIT ( * ) SI_UNIT ( .MILLI., .METRE. ) );
#25 = CC_DESIGN_DATE_AND_TIME_ASSIGNMENT ( #79, #23, ( #107 ) ) ;
#26 = EDGE_CURVE ( 'NONE', #154, #43, #84, .T. ) ;
#27 = CC_DESIGN_APPROVAL ( #127, ( #151 ) ) ;
#28 = CARTESIAN_POINT ( 'NONE',  ( 0.0000000000000000000, 0.0000000000000000000, 2.000000000000000000 ) ) ;
#29 = CARTESIAN_POINT ( 'NONE',  ( 0.0000000000000000000, 0.0000000000000000000, 2.000000000000000000 ) ) ;
#30 = CC_DESIGN_PERSON_AND_ORGANIZATION_ASSIGNMENT ( #144, #138, ( #151 ) ) ;
#31 = DIRECTION ( 'NONE',  ( 1.000000000000000000, 0.0000000000000000000, 0.0000000000000000000 ) ) ;
#32 = EDGE_CURVE ( 'NONE', #154, #95, #139, .T. ) ;
#33 =( NAMED_UNIT ( * ) PLANE_ANGLE_UNIT ( ) SI_UNIT ( $, .RADIAN. ) );
#34 = CIRCLE ( 'NONE', #55, 12.50000000000000000 ) ;
#35 = LOCAL_TIME ( 10, 50, 35.00000000000000000, #165 ) ;
#36 = CC_DESIGN_APPROVAL ( #53, ( #174 ) ) ;
#37 = ORIENTED_EDGE ( 'NONE', *, *, #32, .F. ) ;
#38 = DESIGN_CONTEXT ( 'detailed design', #168, 'design' ) ;
#39 = ADVANCED_FACE ( 'NONE', ( #73 ), #97, .T. ) ;
#40 = AXIS2_PLACEMENT_3D ( 'NONE', #167, #46, #164 ) ;
#41 = ORIENTED_EDGE ( 'NONE', *, *, #101, .T. ) ;
#42 = LOCAL_TIME ( 10, 50, 35.00000000000000000, #67 ) ;
#43 = VERTEX_POINT ( 'NONE', #90 ) ;
#44 = PLANE ( 'NONE',  #56 ) ;
#45 = CARTESIAN_POINT ( 'NONE',  ( -12.50000000000000000, 0.0000000000000000000, 0.0000000000000000000 ) ) ;
#46 = DIRECTION ( 'NONE',  ( 0.0000000000000000000, 0.0000000000000000000, 1.000000000000000000 ) ) ;
#47 = CALENDAR_DATE ( 2017, 1, 2 ) ;
#48 = APPLICATION_CONTEXT ( 'configuration controlled 3d designs of mechanical parts and assemblies' ) ;
#49 = ORIENTED_EDGE ( 'NONE', *, *, #153, .T. ) ;
#50 = MECHANICAL_CONTEXT ( 'NONE', #48, 'mechanical' ) ;
#51 = COORDINATED_UNIVERSAL_TIME_OFFSET ( 5, 0, .BEHIND. ) ;
#52 = PRODUCT ( 'Web Model 84487', 'Web Model 84487', '', ( #50 ) ) ;
#53 = APPROVAL ( #105, 'UNSPECIFIED' ) ;
#54 = ORIENTED_EDGE ( 'NONE', *, *, #26, .T. ) ;
#55 = AXIS2_PLACEMENT_3D ( 'NONE', #150, #21, #31 ) ;
#56 = AXIS2_PLACEMENT_3D ( 'NONE', #28, #6, #60 ) ;
#57 = PRODUCT_DEFINITION_SHAPE ( 'NONE', 'NONE',  #151 ) ;
#58 = UNCERTAINTY_MEASURE_WITH_UNIT (LENGTH_MEASURE( 1.000000000000000100E-005 ), #24, 'distance_accuracy_value', 'NONE');
#59 = ADVANCED_FACE ( 'NONE', ( #17 ), #122, .T. ) ;
#60 = DIRECTION ( 'NONE',  ( 1.000000000000000000, 0.0000000000000000000, -0.0000000000000000000 ) ) ;
#61 = PERSON_AND_ORGANIZATION ( #69, #118 ) ;
#62 = APPROVAL_DATE_TIME ( #131, #75 ) ;
#63 = PERSON_AND_ORGANIZATION ( #69, #118 ) ;
#64 = DIRECTION ( 'NONE',  ( 0.0000000000000000000, 0.0000000000000000000, 1.000000000000000000 ) ) ;
#65 = CARTESIAN_POINT ( 'NONE',  ( 0.0000000000000000000, 0.0000000000000000000, 0.0000000000000000000 ) ) ;
#66 = DIRECTION ( 'NONE',  ( 1.000000000000000000, 0.0000000000000000000, 0.0000000000000000000 ) ) ;
#67 = COORDINATED_UNIVERSAL_TIME_OFFSET ( 5, 0, .BEHIND. ) ;
#68 = SHAPE_DEFINITION_REPRESENTATION ( #57, #137 ) ;
#69 = PERSON ( 'UNSPECIFIED', 'UNSPECIFIED', 'UNSPECIFIED', ('UNSPECIFIED'), ('UNSPECIFIED'), ('UNSPECIFIED') ) ;
#70 = LOCAL_TIME ( 10, 50, 35.00000000000000000, #173 ) ;
#71 = EDGE_LOOP ( 'NONE', ( #87, #16 ) ) ;
#72 = APPROVAL_PERSON_ORGANIZATION ( #63, #127, #11 ) ;
#73 = FACE_OUTER_BOUND ( 'NONE', #159, .T. ) ;
#74 = CARTESIAN_POINT ( 'NONE',  ( -12.50000000000000000, 0.0000000000000000000, 2.000000000000000000 ) ) ;
#75 = APPROVAL ( #10, 'UNSPECIFIED' ) ;
#76 = ORIENTED_EDGE ( 'NONE', *, *, #26, .F. ) ;
#77 = ORIENTED_EDGE ( 'NONE', *, *, #101, .F. ) ;
#78 = CARTESIAN_POINT ( 'NONE',  ( 12.50000000000000000, 1.530808498934191500E-015, 2.000000000000000000 ) ) ;
#79 = DATE_AND_TIME ( #81, #42 ) ;
#80 = CC_DESIGN_PERSON_AND_ORGANIZATION_ASSIGNMENT ( #148, #102, ( #174 ) ) ;
#81 = CALENDAR_DATE ( 2017, 1, 2 ) ;
#82 = PERSON_AND_ORGANIZATION_ROLE ( 'creator' ) ;
#83 = LOCAL_TIME ( 10, 50, 35.00000000000000000, #143 ) ;
#84 = LINE ( 'NONE', #18, #106 ) ;
#85 = LINE ( 'NONE', #74, #104 ) ;
#86 = PRODUCT_RELATED_PRODUCT_CATEGORY ( 'detail', '', ( #52 ) ) ;
#87 = ORIENTED_EDGE ( 'NONE', *, *, #109, .T. ) ;
#88 = AXIS2_PLACEMENT_3D ( 'NONE', #149, #99, #89 ) ;
#89 = DIRECTION ( 'NONE',  ( 1.000000000000000000, 0.0000000000000000000, -0.0000000000000000000 ) ) ;
#90 = CARTESIAN_POINT ( 'NONE',  ( 12.50000000000000000, 1.530808498934191500E-015, 0.0000000000000000000 ) ) ;
#91 = DATE_TIME_ROLE ( 'creation_date' ) ;
#92 = CIRCLE ( 'NONE', #161, 12.50000000000000000 ) ;
#93 = DIRECTION ( 'NONE',  ( 0.0000000000000000000, 0.0000000000000000000, 1.000000000000000000 ) ) ;
#94 = PERSON_AND_ORGANIZATION_ROLE ( 'design_owner' ) ;
#95 = VERTEX_POINT ( 'NONE', #112 ) ;
#96 = PERSON_AND_ORGANIZATION ( #69, #118 ) ;
#97 = CYLINDRICAL_SURFACE ( 'NONE', #141, 12.50000000000000000 ) ;
#98 =( GEOMETRIC_REPRESENTATION_CONTEXT ( 3 ) GLOBAL_UNCERTAINTY_ASSIGNED_CONTEXT ( ( #58 ) ) GLOBAL_UNIT_ASSIGNED_CONTEXT ( ( #24, #33, #9 ) ) REPRESENTATION_CONTEXT ( 'NONE', 'WORKASPACE' ) );
#99 = DIRECTION ( 'NONE',  ( 0.0000000000000000000, 0.0000000000000000000, 1.000000000000000000 ) ) ;
#100 = DIRECTION ( 'NONE',  ( -1.000000000000000000, 0.0000000000000000000, 0.0000000000000000000 ) ) ;
#101 = EDGE_CURVE ( 'NONE', #43, #147, #34, .T. ) ;
#102 = PERSON_AND_ORGANIZATION_ROLE ( 'design_supplier' ) ;
#103 = APPROVAL_ROLE ( '' ) ;
#104 = VECTOR ( 'NONE', #166, 1000.000000000000000 ) ;
#105 = APPROVAL_STATUS ( 'not_yet_approved' ) ;
#106 = VECTOR ( 'NONE', #128, 1000.000000000000000 ) ;
#107 = SECURITY_CLASSIFICATION ( '', '', #140 ) ;
#108 = ADVANCED_FACE ( 'NONE', ( #157 ), #19, .F. ) ;
#109 = EDGE_CURVE ( 'NONE', #95, #154, #163, .T. ) ;
#110 = DIRECTION ( 'NONE',  ( 0.0000000000000000000, 0.0000000000000000000, 1.000000000000000000 ) ) ;
#111 = EDGE_LOOP ( 'NONE', ( #37, #54, #41, #12 ) ) ;
#112 = CARTESIAN_POINT ( 'NONE',  ( -12.50000000000000000, 0.0000000000000000000, 2.000000000000000000 ) ) ;
#113 = CC_DESIGN_SECURITY_CLASSIFICATION ( #107, ( #174 ) ) ;
#114 = EDGE_LOOP ( 'NONE', ( #117, #77 ) ) ;
#115 = APPLICATION_PROTOCOL_DEFINITION ( 'international standard', 'config_control_design', 1994, #48 ) ;
#116 = AXIS2_PLACEMENT_3D ( 'NONE', #124, #64, #66 ) ;
#117 = ORIENTED_EDGE ( 'NONE', *, *, #160, .F. ) ;
#118 = ORGANIZATION ( 'UNSPECIFIED', 'UNSPECIFIED', '' ) ;
#119 = CC_DESIGN_PERSON_AND_ORGANIZATION_ASSIGNMENT ( #61, #22, ( #107 ) ) ;
#120 = PERSON_AND_ORGANIZATION ( #69, #118 ) ;
#121 = AXIS2_PLACEMENT_3D ( 'NONE', #5, #110, #123 ) ;
#122 = CYLINDRICAL_SURFACE ( 'NONE', #158, 12.50000000000000000 ) ;
#123 = DIRECTION ( 'NONE',  ( 1.000000000000000000, 0.0000000000000000000, 0.0000000000000000000 ) ) ;
#124 = CARTESIAN_POINT ( 'NONE',  ( 0.0000000000000000000, 0.0000000000000000000, 0.0000000000000000000 ) ) ;
#125 = FACE_OUTER_BOUND ( 'NONE', #71, .T. ) ;
#126 = DIRECTION ( 'NONE',  ( -0.0000000000000000000, -0.0000000000000000000, -1.000000000000000000 ) ) ;
#127 = APPROVAL ( #171, 'UNSPECIFIED' ) ;
#128 = DIRECTION ( 'NONE',  ( -0.0000000000000000000, -0.0000000000000000000, -1.000000000000000000 ) ) ;
#129 = ORIENTED_EDGE ( 'NONE', *, *, #109, .F. ) ;
#130 = CC_DESIGN_APPROVAL ( #75, ( #107 ) ) ;
#131 = DATE_AND_TIME ( #142, #83 ) ;
#132 = DATE_AND_TIME ( #13, #7 ) ;
#133 = CC_DESIGN_DATE_AND_TIME_ASSIGNMENT ( #132, #91, ( #151 ) ) ;
#134 = ADVANCED_FACE ( 'NONE', ( #125 ), #44, .T. ) ;
#135 = CARTESIAN_POINT ( 'NONE',  ( 0.0000000000000000000, 0.0000000000000000000, 2.000000000000000000 ) ) ;
#136 = DIRECTION ( 'NONE',  ( -1.000000000000000000, 0.0000000000000000000, 0.0000000000000000000 ) ) ;
#137 = ADVANCED_BREP_SHAPE_REPRESENTATION ( 'Web Model 84487', ( #146, #116 ), #98 ) ;
#138 = PERSON_AND_ORGANIZATION_ROLE ( 'creator' ) ;
#139 = CIRCLE ( 'NONE', #40, 12.50000000000000000 ) ;
#140 = SECURITY_CLASSIFICATION_LEVEL ( 'unclassified' ) ;
#141 = AXIS2_PLACEMENT_3D ( 'NONE', #135, #152, #100 ) ;
#142 = CALENDAR_DATE ( 2017, 1, 2 ) ;
#143 = COORDINATED_UNIVERSAL_TIME_OFFSET ( 5, 0, .BEHIND. ) ;
#144 = PERSON_AND_ORGANIZATION ( #69, #118 ) ;
#145 = PERSON_AND_ORGANIZATION ( #69, #118 ) ;
#146 = MANIFOLD_SOLID_BREP ( 'Extrude1', #2 ) ;
#147 = VERTEX_POINT ( 'NONE', #45 ) ;
#148 = PERSON_AND_ORGANIZATION ( #69, #118 ) ;
#149 = CARTESIAN_POINT ( 'NONE',  ( 0.0000000000000000000, 0.0000000000000000000, 0.0000000000000000000 ) ) ;
#150 = CARTESIAN_POINT ( 'NONE',  ( 0.0000000000000000000, 0.0000000000000000000, 0.0000000000000000000 ) ) ;
#151 = PRODUCT_DEFINITION ( 'UNKNOWN', '', #174, #38 ) ;
#152 = DIRECTION ( 'NONE',  ( -0.0000000000000000000, -0.0000000000000000000, -1.000000000000000000 ) ) ;
#153 = EDGE_CURVE ( 'NONE', #95, #147, #85, .T. ) ;
#154 = VERTEX_POINT ( 'NONE', #78 ) ;
#155 = APPLICATION_PROTOCOL_DEFINITION ( 'international standard', 'config_control_design', 1994, #168 ) ;
#156 = APPROVAL_DATE_TIME ( #162, #127 ) ;
#157 = FACE_OUTER_BOUND ( 'NONE', #114, .T. ) ;
#158 = AXIS2_PLACEMENT_3D ( 'NONE', #29, #126, #136 ) ;
#159 = EDGE_LOOP ( 'NONE', ( #76, #129, #49, #14 ) ) ;
#160 = EDGE_CURVE ( 'NONE', #147, #43, #92, .T. ) ;
#161 = AXIS2_PLACEMENT_3D ( 'NONE', #65, #93, #169 ) ;
#162 = DATE_AND_TIME ( #8, #35 ) ;
#163 = CIRCLE ( 'NONE', #121, 12.50000000000000000 ) ;
#164 = DIRECTION ( 'NONE',  ( 1.000000000000000000, 0.0000000000000000000, 0.0000000000000000000 ) ) ;
#165 = COORDINATED_UNIVERSAL_TIME_OFFSET ( 5, 0, .BEHIND. ) ;
#166 = DIRECTION ( 'NONE',  ( -0.0000000000000000000, -0.0000000000000000000, -1.000000000000000000 ) ) ;
#167 = CARTESIAN_POINT ( 'NONE',  ( 0.0000000000000000000, 0.0000000000000000000, 2.000000000000000000 ) ) ;
#168 = APPLICATION_CONTEXT ( 'configuration controlled 3d designs of mechanical parts and assemblies' ) ;
#169 = DIRECTION ( 'NONE',  ( 1.000000000000000000, 0.0000000000000000000, 0.0000000000000000000 ) ) ;
#170 = APPROVAL_PERSON_ORGANIZATION ( #4, #75, #103 ) ;
#171 = APPROVAL_STATUS ( 'not_yet_approved' ) ;
#172 = APPROVAL_ROLE ( '' ) ;
#173 = COORDINATED_UNIVERSAL_TIME_OFFSET ( 5, 0, .BEHIND. ) ;
#174 = PRODUCT_DEFINITION_FORMATION_WITH_SPECIFIED_SOURCE ( 'ANY', '', #52, .NOT_KNOWN. ) ;
#175 = CC_DESIGN_PERSON_AND_ORGANIZATION_ASSIGNMENT ( #145, #94, ( #52 ) ) ;
ENDSEC;
END-ISO-10303-21;
