ISO-10303-21;
HEADER;
FILE_DESCRIPTION (( 'STEP AP203' ),
    '1' );
FILE_NAME ('Web Model 46639_46640.step',
    '2017-04-12T15:54:13',
    ( '' ),
    ( '' ),
    'SwSTEP 2.0',
    'SolidWorks 2016',
    '' );
FILE_SCHEMA (( 'CONFIG_CONTROL_DESIGN' ));
ENDSEC;

DATA;
#1 = DIRECTION ( 'NONE',  ( 0.0000000000000000000, 0.0000000000000000000, 1.000000000000000000 ) ) ;
#2 = CC_DESIGN_APPROVAL ( #225, ( #215 ) ) ;
#3 = CARTESIAN_POINT ( 'NONE',  ( -37.50000000000000000, -37.50000000000000000, -0.5000000000000000000 ) ) ;
#4 = ORIENTED_EDGE ( 'NONE', *, *, #157, .F. ) ;
#5 = ORIENTED_EDGE ( 'NONE', *, *, #191, .F. ) ;
#6 = CARTESIAN_POINT ( 'NONE',  ( 37.50000000000000000, 37.50000000000000000, -0.5000000000000000000 ) ) ;
#7 = ORIENTED_EDGE ( 'NONE', *, *, #180, .T. ) ;
#8 = CARTESIAN_POINT ( 'NONE',  ( -37.50000000000000000, 37.50000000000000000, 0.5000000000000000000 ) ) ;
#9 = MANIFOLD_SOLID_BREP ( 'Boss-Extrude1', #55 ) ;
#10 = DIRECTION ( 'NONE',  ( 0.0000000000000000000, 0.0000000000000000000, 1.000000000000000000 ) ) ;
#11 = VECTOR ( 'NONE', #176, 1000.000000000000000 ) ;
#12 = LINE ( 'NONE', #235, #87 ) ;
#13 = CC_DESIGN_PERSON_AND_ORGANIZATION_ASSIGNMENT ( #67, #214, ( #215 ) ) ;
#14 = APPROVAL_DATE_TIME ( #166, #225 ) ;
#15 = ORIENTED_EDGE ( 'NONE', *, *, #92, .T. ) ;
#16 = LOCAL_TIME ( 11, 54, 13.00000000000000000, #162 ) ;
#17 = PLANE ( 'NONE',  #142 ) ;
#18 = LINE ( 'NONE', #132, #202 ) ;
#19 = ADVANCED_FACE ( 'NONE', ( #168 ), #160, .T. ) ;
#20 = AXIS2_PLACEMENT_3D ( 'NONE', #208, #122, #194 ) ;
#21 = PERSON_AND_ORGANIZATION_ROLE ( 'design_owner' ) ;
#22 = APPLICATION_PROTOCOL_DEFINITION ( 'international standard', 'config_control_design', 1994, #174 ) ;
#23 = LINE ( 'NONE', #34, #232 ) ;
#24 = CARTESIAN_POINT ( 'NONE',  ( 37.50000000000000000, -37.50000000000000000, 0.5000000000000000000 ) ) ;
#25 = ORIENTED_EDGE ( 'NONE', *, *, #92, .F. ) ;
#26 = CARTESIAN_POINT ( 'NONE',  ( -37.50000000000000000, -37.50000000000000000, -0.5000000000000000000 ) ) ;
#27 = ADVANCED_FACE ( 'NONE', ( #190 ), #73, .F. ) ;
#28 = CARTESIAN_POINT ( 'NONE',  ( 37.50000000000000000, 37.50000000000000000, -0.5000000000000000000 ) ) ;
#29 = PERSON_AND_ORGANIZATION ( #189, #184 ) ;
#30 = CC_DESIGN_DATE_AND_TIME_ASSIGNMENT ( #200, #186, ( #215 ) ) ;
#31 = DATE_TIME_ROLE ( 'classification_date' ) ;
#32 = LOCAL_TIME ( 11, 54, 13.00000000000000000, #207 ) ;
#33 = APPROVAL_PERSON_ORGANIZATION ( #81, #135, #209 ) ;
#34 = CARTESIAN_POINT ( 'NONE',  ( -37.50000000000000000, 37.50000000000000000, -0.5000000000000000000 ) ) ;
#35 = ORIENTED_EDGE ( 'NONE', *, *, #109, .F. ) ;
#36 = DIRECTION ( 'NONE',  ( 1.000000000000000000, 0.0000000000000000000, 0.0000000000000000000 ) ) ;
#37 = PRODUCT_DEFINITION_FORMATION_WITH_SPECIFIED_SOURCE ( 'ANY', '', #134, .NOT_KNOWN. ) ;
#38 = PERSON_AND_ORGANIZATION ( #189, #184 ) ;
#39 = PLANE ( 'NONE',  #119 ) ;
#40 = COORDINATED_UNIVERSAL_TIME_OFFSET ( 5, 0, .BEHIND. ) ;
#41 = DIRECTION ( 'NONE',  ( 0.0000000000000000000, -0.0000000000000000000, 1.000000000000000000 ) ) ;
#42 = DIRECTION ( 'NONE',  ( 1.000000000000000000, 0.0000000000000000000, 0.0000000000000000000 ) ) ;
#43 = CARTESIAN_POINT ( 'NONE',  ( 0.0000000000000000000, 0.0000000000000000000, -0.5000000000000000000 ) ) ;
#44 = ORIENTED_EDGE ( 'NONE', *, *, #109, .T. ) ;
#45 = AXIS2_PLACEMENT_3D ( 'NONE', #118, #177, #10 ) ;
#46 = CARTESIAN_POINT ( 'NONE',  ( -37.50000000000000000, 37.50000000000000000, 0.5000000000000000000 ) ) ;
#47 = ORIENTED_EDGE ( 'NONE', *, *, #123, .F. ) ;
#48 = DESIGN_CONTEXT ( 'detailed design', #174, 'design' ) ;
#49 =( LENGTH_UNIT ( ) NAMED_UNIT ( * ) SI_UNIT ( .MILLI., .METRE. ) );
#50 = CARTESIAN_POINT ( 'NONE',  ( 37.50000000000000000, 37.50000000000000000, 0.5000000000000000000 ) ) ;
#51 = CARTESIAN_POINT ( 'NONE',  ( -37.50000000000000000, 37.50000000000000000, -0.5000000000000000000 ) ) ;
#52 = APPROVAL_STATUS ( 'not_yet_approved' ) ;
#53 = APPROVAL ( #56, 'UNSPECIFIED' ) ;
#54 = DIRECTION ( 'NONE',  ( -0.0000000000000000000, -0.0000000000000000000, -1.000000000000000000 ) ) ;
#55 = CLOSED_SHELL ( 'NONE', ( #27, #159, #226, #195, #19, #111 ) ) ;
#56 = APPROVAL_STATUS ( 'not_yet_approved' ) ;
#57 = UNCERTAINTY_MEASURE_WITH_UNIT (LENGTH_MEASURE( 1.000000000000000100E-005 ), #49, 'distance_accuracy_value', 'NONE');
#58 = LINE ( 'NONE', #193, #138 ) ;
#59 = EDGE_LOOP ( 'NONE', ( #206, #178, #181, #99 ) ) ;
#60 =( NAMED_UNIT ( * ) SI_UNIT ( $, .STERADIAN. ) SOLID_ANGLE_UNIT ( ) );
#61 = VECTOR ( 'NONE', #101, 1000.000000000000000 ) ;
#62 = EDGE_LOOP ( 'NONE', ( #44, #47, #161, #237 ) ) ;
#63 = CARTESIAN_POINT ( 'NONE',  ( 37.50000000000000000, -37.50000000000000000, -0.5000000000000000000 ) ) ;
#64 = CARTESIAN_POINT ( 'NONE',  ( -37.50000000000000000, 37.50000000000000000, 0.5000000000000000000 ) ) ;
#65 = EDGE_LOOP ( 'NONE', ( #7, #15, #96, #156 ) ) ;
#66 = CC_DESIGN_APPROVAL ( #53, ( #37 ) ) ;
#67 = PERSON_AND_ORGANIZATION ( #189, #184 ) ;
#68 = SECURITY_CLASSIFICATION_LEVEL ( 'unclassified' ) ;
#69 = FACE_OUTER_BOUND ( 'NONE', #233, .T. ) ;
#70 = APPROVAL_DATE_TIME ( #116, #135 ) ;
#71 = AXIS2_PLACEMENT_3D ( 'NONE', #43, #120, #42 ) ;
#72 = CARTESIAN_POINT ( 'NONE',  ( -37.50000000000000000, 37.50000000000000000, 0.5000000000000000000 ) ) ;
#73 = PLANE ( 'NONE',  #45 ) ;
#74 = ORIENTED_EDGE ( 'NONE', *, *, #169, .F. ) ;
#75 = COORDINATED_UNIVERSAL_TIME_OFFSET ( 5, 0, .BEHIND. ) ;
#76 = CC_DESIGN_PERSON_AND_ORGANIZATION_ASSIGNMENT ( #29, #182, ( #37 ) ) ;
#77 = APPROVAL_STATUS ( 'not_yet_approved' ) ;
#78 = EDGE_LOOP ( 'NONE', ( #5, #173, #35, #91 ) ) ;
#79 = APPLICATION_CONTEXT ( 'configuration controlled 3d designs of mechanical parts and assemblies' ) ;
#80 = DATE_AND_TIME ( #224, #199 ) ;
#81 = PERSON_AND_ORGANIZATION ( #189, #184 ) ;
#82 = DIRECTION ( 'NONE',  ( -0.0000000000000000000, -0.0000000000000000000, -1.000000000000000000 ) ) ;
#83 = EDGE_CURVE ( 'NONE', #148, #147, #58, .T. ) ;
#84 = LINE ( 'NONE', #72, #102 ) ;
#85 = CC_DESIGN_PERSON_AND_ORGANIZATION_ASSIGNMENT ( #175, #236, ( #37 ) ) ;
#86 = ORIENTED_EDGE ( 'NONE', *, *, #123, .T. ) ;
#87 = VECTOR ( 'NONE', #167, 1000.000000000000000 ) ;
#88 = AXIS2_PLACEMENT_3D ( 'NONE', #46, #151, #223 ) ;
#89 = DIRECTION ( 'NONE',  ( -1.000000000000000000, -0.0000000000000000000, -0.0000000000000000000 ) ) ;
#90 = LINE ( 'NONE', #217, #213 ) ;
#91 = ORIENTED_EDGE ( 'NONE', *, *, #219, .F. ) ;
#92 = EDGE_CURVE ( 'NONE', #144, #148, #203, .T. ) ;
#93 = VECTOR ( 'NONE', #211, 1000.000000000000000 ) ;
#94 = SECURITY_CLASSIFICATION ( '', '', #68 ) ;
#95 = DIRECTION ( 'NONE',  ( 0.0000000000000000000, 1.000000000000000000, 0.0000000000000000000 ) ) ;
#96 = ORIENTED_EDGE ( 'NONE', *, *, #131, .T. ) ;
#97 = APPROVAL_ROLE ( '' ) ;
#98 = CARTESIAN_POINT ( 'NONE',  ( 37.50000000000000000, 37.50000000000000000, 0.5000000000000000000 ) ) ;
#99 = ORIENTED_EDGE ( 'NONE', *, *, #169, .T. ) ;
#100 = DIRECTION ( 'NONE',  ( 0.0000000000000000000, -1.000000000000000000, 0.0000000000000000000 ) ) ;
#101 = DIRECTION ( 'NONE',  ( -0.0000000000000000000, 1.000000000000000000, -0.0000000000000000000 ) ) ;
#102 = VECTOR ( 'NONE', #205, 1000.000000000000000 ) ;
#103 = CALENDAR_DATE ( 2017, 12, 4 ) ;
#104 = PERSON_AND_ORGANIZATION_ROLE ( 'classification_officer' ) ;
#105 = ORIENTED_EDGE ( 'NONE', *, *, #146, .T. ) ;
#106 = PLANE ( 'NONE',  #71 ) ;
#107 = LINE ( 'NONE', #28, #61 ) ;
#108 = VERTEX_POINT ( 'NONE', #63 ) ;
#109 = EDGE_CURVE ( 'NONE', #147, #112, #23, .T. ) ;
#110 = LINE ( 'NONE', #201, #154 ) ;
#111 = ADVANCED_FACE ( 'NONE', ( #185 ), #106, .F. ) ;
#112 = VERTEX_POINT ( 'NONE', #26 ) ;
#113 = CALENDAR_DATE ( 2017, 12, 4 ) ;
#114 = CC_DESIGN_PERSON_AND_ORGANIZATION_ASSIGNMENT ( #124, #104, ( #94 ) ) ;
#115 = VECTOR ( 'NONE', #54, 1000.000000000000000 ) ;
#116 = DATE_AND_TIME ( #103, #164 ) ;
#117 = ORIENTED_EDGE ( 'NONE', *, *, #219, .T. ) ;
#118 = CARTESIAN_POINT ( 'NONE',  ( 37.50000000000000000, 37.50000000000000000, 0.5000000000000000000 ) ) ;
#119 = AXIS2_PLACEMENT_3D ( 'NONE', #143, #95, #41 ) ;
#120 = DIRECTION ( 'NONE',  ( -0.0000000000000000000, 0.0000000000000000000, 1.000000000000000000 ) ) ;
#121 = CARTESIAN_POINT ( 'NONE',  ( -37.50000000000000000, 37.50000000000000000, 0.5000000000000000000 ) ) ;
#122 = DIRECTION ( 'NONE',  ( -0.0000000000000000000, 0.0000000000000000000, 1.000000000000000000 ) ) ;
#123 = EDGE_CURVE ( 'NONE', #218, #112, #90, .T. ) ;
#124 = PERSON_AND_ORGANIZATION ( #189, #184 ) ;
#125 = CARTESIAN_POINT ( 'NONE',  ( 37.50000000000000000, -37.50000000000000000, 0.5000000000000000000 ) ) ;
#126 = CC_DESIGN_DATE_AND_TIME_ASSIGNMENT ( #179, #31, ( #94 ) ) ;
#127 = MECHANICAL_CONTEXT ( 'NONE', #79, 'mechanical' ) ;
#128 =( GEOMETRIC_REPRESENTATION_CONTEXT ( 3 ) GLOBAL_UNCERTAINTY_ASSIGNED_CONTEXT ( ( #57 ) ) GLOBAL_UNIT_ASSIGNED_CONTEXT ( ( #49, #139, #60 ) ) REPRESENTATION_CONTEXT ( 'NONE', 'WORKASPACE' ) );
#129 = CALENDAR_DATE ( 2017, 12, 4 ) ;
#130 = VECTOR ( 'NONE', #140, 1000.000000000000000 ) ;
#131 = EDGE_CURVE ( 'NONE', #148, #218, #84, .T. ) ;
#132 = CARTESIAN_POINT ( 'NONE',  ( 37.50000000000000000, 37.50000000000000000, 0.5000000000000000000 ) ) ;
#133 = VERTEX_POINT ( 'NONE', #24 ) ;
#134 = PRODUCT ( 'Web Model 46639_46640', 'Web Model 46639_46640', '', ( #127 ) ) ;
#135 = APPROVAL ( #77, 'UNSPECIFIED' ) ;
#136 = CARTESIAN_POINT ( 'NONE',  ( -37.50000000000000000, -37.50000000000000000, 0.5000000000000000000 ) ) ;
#137 = PERSON_AND_ORGANIZATION ( #189, #184 ) ;
#138 = VECTOR ( 'NONE', #82, 1000.000000000000000 ) ;
#139 =( NAMED_UNIT ( * ) PLANE_ANGLE_UNIT ( ) SI_UNIT ( $, .RADIAN. ) );
#140 = DIRECTION ( 'NONE',  ( -1.000000000000000000, -0.0000000000000000000, -0.0000000000000000000 ) ) ;
#141 = SHAPE_DEFINITION_REPRESENTATION ( #165, #197 ) ;
#142 = AXIS2_PLACEMENT_3D ( 'NONE', #8, #212, #229 ) ;
#143 = CARTESIAN_POINT ( 'NONE',  ( -37.50000000000000000, -37.50000000000000000, 0.5000000000000000000 ) ) ;
#144 = VERTEX_POINT ( 'NONE', #50 ) ;
#145 = APPLICATION_PROTOCOL_DEFINITION ( 'international standard', 'config_control_design', 1994, #79 ) ;
#146 = EDGE_CURVE ( 'NONE', #112, #108, #183, .T. ) ;
#147 = VERTEX_POINT ( 'NONE', #51 ) ;
#148 = VERTEX_POINT ( 'NONE', #64 ) ;
#149 = CC_DESIGN_APPROVAL ( #135, ( #94 ) ) ;
#150 = PLANE ( 'NONE',  #88 ) ;
#151 = DIRECTION ( 'NONE',  ( 0.0000000000000000000, -1.000000000000000000, 0.0000000000000000000 ) ) ;
#152 = ORIENTED_EDGE ( 'NONE', *, *, #204, .T. ) ;
#153 = CALENDAR_DATE ( 2017, 12, 4 ) ;
#154 = VECTOR ( 'NONE', #89, 1000.000000000000000 ) ;
#155 = FACE_OUTER_BOUND ( 'NONE', #62, .T. ) ;
#156 = ORIENTED_EDGE ( 'NONE', *, *, #157, .T. ) ;
#157 = EDGE_CURVE ( 'NONE', #218, #133, #12, .T. ) ;
#158 = APPROVAL_ROLE ( '' ) ;
#159 = ADVANCED_FACE ( 'NONE', ( #210 ), #150, .F. ) ;
#160 = PLANE ( 'NONE',  #20 ) ;
#161 = ORIENTED_EDGE ( 'NONE', *, *, #131, .F. ) ;
#162 = COORDINATED_UNIVERSAL_TIME_OFFSET ( 5, 0, .BEHIND. ) ;
#163 = CC_DESIGN_SECURITY_CLASSIFICATION ( #94, ( #37 ) ) ;
#164 = LOCAL_TIME ( 11, 54, 13.00000000000000000, #221 ) ;
#165 = PRODUCT_DEFINITION_SHAPE ( 'NONE', 'NONE',  #215 ) ;
#166 = DATE_AND_TIME ( #129, #32 ) ;
#167 = DIRECTION ( 'NONE',  ( 1.000000000000000000, 0.0000000000000000000, 0.0000000000000000000 ) ) ;
#168 = FACE_OUTER_BOUND ( 'NONE', #65, .T. ) ;
#169 = EDGE_CURVE ( 'NONE', #133, #108, #192, .T. ) ;
#170 = APPROVAL_DATE_TIME ( #80, #53 ) ;
#171 = DIRECTION ( 'NONE',  ( -0.0000000000000000000, -0.0000000000000000000, -1.000000000000000000 ) ) ;
#172 = PRODUCT_RELATED_PRODUCT_CATEGORY ( 'detail', '', ( #134 ) ) ;
#173 = ORIENTED_EDGE ( 'NONE', *, *, #146, .F. ) ;
#174 = APPLICATION_CONTEXT ( 'configuration controlled 3d designs of mechanical parts and assemblies' ) ;
#175 = PERSON_AND_ORGANIZATION ( #189, #184 ) ;
#176 = DIRECTION ( 'NONE',  ( -0.0000000000000000000, -0.0000000000000000000, -1.000000000000000000 ) ) ;
#177 = DIRECTION ( 'NONE',  ( -1.000000000000000000, 0.0000000000000000000, 0.0000000000000000000 ) ) ;
#178 = ORIENTED_EDGE ( 'NONE', *, *, #204, .F. ) ;
#179 = DATE_AND_TIME ( #153, #230 ) ;
#180 = EDGE_CURVE ( 'NONE', #133, #144, #18, .T. ) ;
#181 = ORIENTED_EDGE ( 'NONE', *, *, #180, .F. ) ;
#182 = PERSON_AND_ORGANIZATION_ROLE ( 'creator' ) ;
#183 = LINE ( 'NONE', #3, #93 ) ;
#184 = ORGANIZATION ( 'UNSPECIFIED', 'UNSPECIFIED', '' ) ;
#185 = FACE_OUTER_BOUND ( 'NONE', #78, .T. ) ;
#186 = DATE_TIME_ROLE ( 'creation_date' ) ;
#187 = AXIS2_PLACEMENT_3D ( 'NONE', #234, #1, #36 ) ;
#188 = VERTEX_POINT ( 'NONE', #6 ) ;
#189 = PERSON ( 'UNSPECIFIED', 'UNSPECIFIED', 'UNSPECIFIED', ('UNSPECIFIED'), ('UNSPECIFIED'), ('UNSPECIFIED') ) ;
#190 = FACE_OUTER_BOUND ( 'NONE', #59, .T. ) ;
#191 = EDGE_CURVE ( 'NONE', #108, #188, #107, .T. ) ;
#192 = LINE ( 'NONE', #125, #115 ) ;
#193 = CARTESIAN_POINT ( 'NONE',  ( -37.50000000000000000, 37.50000000000000000, 0.5000000000000000000 ) ) ;
#194 = DIRECTION ( 'NONE',  ( 1.000000000000000000, 0.0000000000000000000, 0.0000000000000000000 ) ) ;
#195 = ADVANCED_FACE ( 'NONE', ( #69 ), #39, .F. ) ;
#196 = LINE ( 'NONE', #98, #11 ) ;
#197 = ADVANCED_BREP_SHAPE_REPRESENTATION ( 'Web Model 46639_46640', ( #9, #187 ), #128 ) ;
#198 = CC_DESIGN_PERSON_AND_ORGANIZATION_ASSIGNMENT ( #38, #21, ( #134 ) ) ;
#199 = LOCAL_TIME ( 11, 54, 13.00000000000000000, #40 ) ;
#200 = DATE_AND_TIME ( #113, #16 ) ;
#201 = CARTESIAN_POINT ( 'NONE',  ( -37.50000000000000000, 37.50000000000000000, -0.5000000000000000000 ) ) ;
#202 = VECTOR ( 'NONE', #231, 1000.000000000000000 ) ;
#203 = LINE ( 'NONE', #121, #130 ) ;
#204 = EDGE_CURVE ( 'NONE', #144, #188, #196, .T. ) ;
#205 = DIRECTION ( 'NONE',  ( 0.0000000000000000000, -1.000000000000000000, 0.0000000000000000000 ) ) ;
#206 = ORIENTED_EDGE ( 'NONE', *, *, #191, .T. ) ;
#207 = COORDINATED_UNIVERSAL_TIME_OFFSET ( 5, 0, .BEHIND. ) ;
#208 = CARTESIAN_POINT ( 'NONE',  ( 0.0000000000000000000, 0.0000000000000000000, 0.5000000000000000000 ) ) ;
#209 = APPROVAL_ROLE ( '' ) ;
#210 = FACE_OUTER_BOUND ( 'NONE', #222, .T. ) ;
#211 = DIRECTION ( 'NONE',  ( 1.000000000000000000, 0.0000000000000000000, 0.0000000000000000000 ) ) ;
#212 = DIRECTION ( 'NONE',  ( 1.000000000000000000, 0.0000000000000000000, -0.0000000000000000000 ) ) ;
#213 = VECTOR ( 'NONE', #171, 1000.000000000000000 ) ;
#214 = PERSON_AND_ORGANIZATION_ROLE ( 'creator' ) ;
#215 = PRODUCT_DEFINITION ( 'UNKNOWN', '', #37, #48 ) ;
#216 = PERSON_AND_ORGANIZATION ( #189, #184 ) ;
#217 = CARTESIAN_POINT ( 'NONE',  ( -37.50000000000000000, -37.50000000000000000, 0.5000000000000000000 ) ) ;
#218 = VERTEX_POINT ( 'NONE', #136 ) ;
#219 = EDGE_CURVE ( 'NONE', #188, #147, #110, .T. ) ;
#220 = APPROVAL_PERSON_ORGANIZATION ( #216, #53, #97 ) ;
#221 = COORDINATED_UNIVERSAL_TIME_OFFSET ( 5, 0, .BEHIND. ) ;
#222 = EDGE_LOOP ( 'NONE', ( #117, #228, #25, #152 ) ) ;
#223 = DIRECTION ( 'NONE',  ( 0.0000000000000000000, -0.0000000000000000000, -1.000000000000000000 ) ) ;
#224 = CALENDAR_DATE ( 2017, 12, 4 ) ;
#225 = APPROVAL ( #52, 'UNSPECIFIED' ) ;
#226 = ADVANCED_FACE ( 'NONE', ( #155 ), #17, .F. ) ;
#227 = APPROVAL_PERSON_ORGANIZATION ( #137, #225, #158 ) ;
#228 = ORIENTED_EDGE ( 'NONE', *, *, #83, .F. ) ;
#229 = DIRECTION ( 'NONE',  ( -0.0000000000000000000, 0.0000000000000000000, -1.000000000000000000 ) ) ;
#230 = LOCAL_TIME ( 11, 54, 13.00000000000000000, #75 ) ;
#231 = DIRECTION ( 'NONE',  ( -0.0000000000000000000, 1.000000000000000000, -0.0000000000000000000 ) ) ;
#232 = VECTOR ( 'NONE', #100, 1000.000000000000000 ) ;
#233 = EDGE_LOOP ( 'NONE', ( #105, #74, #4, #86 ) ) ;
#234 = CARTESIAN_POINT ( 'NONE',  ( 0.0000000000000000000, 0.0000000000000000000, 0.0000000000000000000 ) ) ;
#235 = CARTESIAN_POINT ( 'NONE',  ( -37.50000000000000000, -37.50000000000000000, 0.5000000000000000000 ) ) ;
#236 = PERSON_AND_ORGANIZATION_ROLE ( 'design_supplier' ) ;
#237 = ORIENTED_EDGE ( 'NONE', *, *, #83, .T. ) ;
ENDSEC;
END-ISO-10303-21;
