ISO-10303-21;
HEADER;
FILE_DESCRIPTION (( 'STEP AP203' ),
    '1' );
FILE_NAME ('Web Model 11875_14834.step',
    '2020-10-07T17:19:10',
    ( '' ),
    ( '' ),
    'SwSTEP 2.0',
    'SolidWorks 2018',
    '' );
FILE_SCHEMA (( 'CONFIG_CONTROL_DESIGN' ));
ENDSEC;

DATA;
#1 = DATE_AND_TIME ( #126, #164 ) ;
#2 = AXIS2_PLACEMENT_3D ( 'NONE', #149, #14, #26 ) ;
#3 = CALENDAR_DATE ( 2020, 7, 10 ) ;
#4 = CIRCLE ( 'NONE', #96, 25.39999999999999858 ) ;
#5 = DIRECTION ( 'NONE',  ( 1.000000000000000000, 0.0000000000000000000, 0.0000000000000000000 ) ) ;
#6 = DIRECTION ( 'NONE',  ( -0.0000000000000000000, -0.0000000000000000000, -1.000000000000000000 ) ) ;
#7 = DIRECTION ( 'NONE',  ( 0.0000000000000000000, 0.0000000000000000000, 1.000000000000000000 ) ) ;
#8 = DIRECTION ( 'NONE',  ( 1.000000000000000000, 0.0000000000000000000, 0.0000000000000000000 ) ) ;
#9 = PRODUCT_DEFINITION ( 'UNKNOWN', '', #88, #146 ) ;
#10 = PERSON_AND_ORGANIZATION_ROLE ( 'creator' ) ;
#11 = PERSON_AND_ORGANIZATION ( #99, #28 ) ;
#12 = DIRECTION ( 'NONE',  ( 0.0000000000000000000, 0.0000000000000000000, 1.000000000000000000 ) ) ;
#13 = ORIENTED_EDGE ( 'NONE', *, *, #29, .T. ) ;
#14 = DIRECTION ( 'NONE',  ( -0.0000000000000000000, -0.0000000000000000000, -1.000000000000000000 ) ) ;
#15 = PERSON_AND_ORGANIZATION ( #99, #28 ) ;
#16 = DIRECTION ( 'NONE',  ( 1.000000000000000000, 0.0000000000000000000, -0.0000000000000000000 ) ) ;
#17 = CC_DESIGN_PERSON_AND_ORGANIZATION_ASSIGNMENT ( #53, #66, ( #88 ) ) ;
#18 = CALENDAR_DATE ( 2020, 7, 10 ) ;
#19 = CC_DESIGN_PERSON_AND_ORGANIZATION_ASSIGNMENT ( #94, #10, ( #9 ) ) ;
#20 = CARTESIAN_POINT ( 'NONE',  ( 0.0000000000000000000, 0.0000000000000000000, -1.500000000000000000 ) ) ;
#21 = CARTESIAN_POINT ( 'NONE',  ( 0.0000000000000000000, 0.0000000000000000000, -1.500000000000000000 ) ) ;
#22 = CIRCLE ( 'NONE', #51, 25.39999999999999858 ) ;
#23 = APPROVAL_DATE_TIME ( #156, #159 ) ;
#24 = DIRECTION ( 'NONE',  ( 1.000000000000000000, 0.0000000000000000000, 0.0000000000000000000 ) ) ;
#25 = SECURITY_CLASSIFICATION ( '', '', #165 ) ;
#26 = DIRECTION ( 'NONE',  ( -1.000000000000000000, 0.0000000000000000000, 0.0000000000000000000 ) ) ;
#27 = DIRECTION ( 'NONE',  ( -0.0000000000000000000, -0.0000000000000000000, -1.000000000000000000 ) ) ;
#28 = ORGANIZATION ( 'UNSPECIFIED', 'UNSPECIFIED', '' ) ;
#29 = EDGE_CURVE ( 'NONE', #106, #154, #172, .T. ) ;
#30 = AXIS2_PLACEMENT_3D ( 'NONE', #102, #58, #16 ) ;
#31 = EDGE_LOOP ( 'NONE', ( #129, #140, #54, #135 ) ) ;
#32 = APPROVAL ( #35, 'UNSPECIFIED' ) ;
#33 = ORIENTED_EDGE ( 'NONE', *, *, #130, .T. ) ;
#34 = DIRECTION ( 'NONE',  ( 0.0000000000000000000, 0.0000000000000000000, 1.000000000000000000 ) ) ;
#35 = APPROVAL_STATUS ( 'not_yet_approved' ) ;
#36 = CARTESIAN_POINT ( 'NONE',  ( 0.0000000000000000000, 0.0000000000000000000, 1.500000000000000000 ) ) ;
#37 = CC_DESIGN_DATE_AND_TIME_ASSIGNMENT ( #55, #174, ( #9 ) ) ;
#38 = SHAPE_DEFINITION_REPRESENTATION ( #73, #69 ) ;
#39 = DATE_TIME_ROLE ( 'classification_date' ) ;
#40 = EDGE_LOOP ( 'NONE', ( #65, #62, #33, #77 ) ) ;
#41 = APPROVAL_DATE_TIME ( #1, #98 ) ;
#42 = APPROVAL_ROLE ( '' ) ;
#43 = EDGE_CURVE ( 'NONE', #127, #76, #4, .T. ) ;
#44 = CYLINDRICAL_SURFACE ( 'NONE', #2, 25.39999999999999858 ) ;
#45 = MANIFOLD_SOLID_BREP ( 'Boss-Extrude1', #158 ) ;
#46 = CC_DESIGN_PERSON_AND_ORGANIZATION_ASSIGNMENT ( #15, #125, ( #88 ) ) ;
#47 = COORDINATED_UNIVERSAL_TIME_OFFSET ( 5, 0, .BEHIND. ) ;
#48 = LINE ( 'NONE', #72, #84 ) ;
#49 = APPLICATION_CONTEXT ( 'configuration controlled 3d designs of mechanical parts and assemblies' ) ;
#50 = DIRECTION ( 'NONE',  ( 0.0000000000000000000, 0.0000000000000000000, 1.000000000000000000 ) ) ;
#51 = AXIS2_PLACEMENT_3D ( 'NONE', #36, #82, #24 ) ;
#52 = DIRECTION ( 'NONE',  ( 0.0000000000000000000, 0.0000000000000000000, 1.000000000000000000 ) ) ;
#53 = PERSON_AND_ORGANIZATION ( #99, #28 ) ;
#54 = ORIENTED_EDGE ( 'NONE', *, *, #43, .T. ) ;
#55 = DATE_AND_TIME ( #167, #136 ) ;
#56 = CC_DESIGN_DATE_AND_TIME_ASSIGNMENT ( #100, #39, ( #25 ) ) ;
#57 = EDGE_CURVE ( 'NONE', #154, #106, #22, .T. ) ;
#58 = DIRECTION ( 'NONE',  ( 0.0000000000000000000, 0.0000000000000000000, 1.000000000000000000 ) ) ;
#59 = PERSON_AND_ORGANIZATION ( #99, #28 ) ;
#60 = ORIENTED_EDGE ( 'NONE', *, *, #155, .F. ) ;
#61 = APPROVAL_PERSON_ORGANIZATION ( #153, #159, #145 ) ;
#62 = ORIENTED_EDGE ( 'NONE', *, *, #57, .F. ) ;
#63 = AXIS2_PLACEMENT_3D ( 'NONE', #20, #34, #143 ) ;
#64 =( NAMED_UNIT ( * ) PLANE_ANGLE_UNIT ( ) SI_UNIT ( $, .RADIAN. ) );
#65 = ORIENTED_EDGE ( 'NONE', *, *, #90, .F. ) ;
#66 = PERSON_AND_ORGANIZATION_ROLE ( 'creator' ) ;
#67 = APPROVAL_PERSON_ORGANIZATION ( #120, #32, #42 ) ;
#68 = PLANE ( 'NONE',  #175 ) ;
#69 = ADVANCED_BREP_SHAPE_REPRESENTATION ( 'Web Model 11875_14834', ( #45, #138 ), #79 ) ;
#70 = CARTESIAN_POINT ( 'NONE',  ( 25.39999999999999858, 3.110602869834276865E-15, 1.500000000000000000 ) ) ;
#71 = CC_DESIGN_SECURITY_CLASSIFICATION ( #25, ( #88 ) ) ;
#72 = CARTESIAN_POINT ( 'NONE',  ( -25.39999999999999858, 0.0000000000000000000, 1.500000000000000000 ) ) ;
#73 = PRODUCT_DEFINITION_SHAPE ( 'NONE', 'NONE',  #9 ) ;
#74 = CARTESIAN_POINT ( 'NONE',  ( -25.39999999999999858, 0.0000000000000000000, 1.500000000000000000 ) ) ;
#75 = APPROVAL_DATE_TIME ( #117, #32 ) ;
#76 = VERTEX_POINT ( 'NONE', #162 ) ;
#77 = ORIENTED_EDGE ( 'NONE', *, *, #155, .T. ) ;
#78 = DIRECTION ( 'NONE',  ( -1.000000000000000000, 0.0000000000000000000, 0.0000000000000000000 ) ) ;
#79 =( GEOMETRIC_REPRESENTATION_CONTEXT ( 3 ) GLOBAL_UNCERTAINTY_ASSIGNED_CONTEXT ( ( #101 ) ) GLOBAL_UNIT_ASSIGNED_CONTEXT ( ( #173, #64, #109 ) ) REPRESENTATION_CONTEXT ( 'NONE', 'WORKASPACE' ) );
#80 = ADVANCED_FACE ( 'NONE', ( #121 ), #139, .T. ) ;
#81 = DIRECTION ( 'NONE',  ( 1.000000000000000000, 0.0000000000000000000, -0.0000000000000000000 ) ) ;
#82 = DIRECTION ( 'NONE',  ( 0.0000000000000000000, 0.0000000000000000000, 1.000000000000000000 ) ) ;
#83 = LOCAL_TIME ( 13, 19, 10.00000000000000000, #170 ) ;
#84 = VECTOR ( 'NONE', #27, 1000.000000000000000 ) ;
#85 = PRODUCT ( 'Web Model 11875_14834', 'Web Model 11875_14834', '', ( #160 ) ) ;
#86 = PRODUCT_RELATED_PRODUCT_CATEGORY ( 'detail', '', ( #85 ) ) ;
#87 = COORDINATED_UNIVERSAL_TIME_OFFSET ( 5, 0, .BEHIND. ) ;
#88 = PRODUCT_DEFINITION_FORMATION_WITH_SPECIFIED_SOURCE ( 'ANY', '', #85, .NOT_KNOWN. ) ;
#89 = COORDINATED_UNIVERSAL_TIME_OFFSET ( 5, 0, .BEHIND. ) ;
#90 = EDGE_CURVE ( 'NONE', #106, #127, #110, .T. ) ;
#91 = CARTESIAN_POINT ( 'NONE',  ( 0.0000000000000000000, 0.0000000000000000000, 0.0000000000000000000 ) ) ;
#92 = APPLICATION_CONTEXT ( 'configuration controlled 3d designs of mechanical parts and assemblies' ) ;
#93 = FACE_OUTER_BOUND ( 'NONE', #118, .T. ) ;
#94 = PERSON_AND_ORGANIZATION ( #99, #28 ) ;
#95 = APPROVAL_STATUS ( 'not_yet_approved' ) ;
#96 = AXIS2_PLACEMENT_3D ( 'NONE', #115, #50, #8 ) ;
#97 = CARTESIAN_POINT ( 'NONE',  ( 0.0000000000000000000, 0.0000000000000000000, 1.500000000000000000 ) ) ;
#98 = APPROVAL ( #95, 'UNSPECIFIED' ) ;
#99 = PERSON ( 'UNSPECIFIED', 'UNSPECIFIED', 'UNSPECIFIED', ('UNSPECIFIED'), ('UNSPECIFIED'), ('UNSPECIFIED') ) ;
#100 = DATE_AND_TIME ( #147, #151 ) ;
#101 = UNCERTAINTY_MEASURE_WITH_UNIT (LENGTH_MEASURE( 1.000000000000000082E-05 ), #173, 'distance_accuracy_value', 'NONE');
#102 = CARTESIAN_POINT ( 'NONE',  ( 0.0000000000000000000, 0.0000000000000000000, 1.500000000000000000 ) ) ;
#103 = AXIS2_PLACEMENT_3D ( 'NONE', #97, #12, #116 ) ;
#104 = VECTOR ( 'NONE', #111, 1000.000000000000000 ) ;
#105 = ORIENTED_EDGE ( 'NONE', *, *, #43, .F. ) ;
#106 = VERTEX_POINT ( 'NONE', #70 ) ;
#107 = PERSON_AND_ORGANIZATION ( #99, #28 ) ;
#108 = ADVANCED_FACE ( 'NONE', ( #166 ), #68, .F. ) ;
#109 =( NAMED_UNIT ( * ) SI_UNIT ( $, .STERADIAN. ) SOLID_ANGLE_UNIT ( ) );
#110 = LINE ( 'NONE', #144, #104 ) ;
#111 = DIRECTION ( 'NONE',  ( -0.0000000000000000000, -0.0000000000000000000, -1.000000000000000000 ) ) ;
#112 = CC_DESIGN_APPROVAL ( #32, ( #25 ) ) ;
#113 = APPLICATION_PROTOCOL_DEFINITION ( 'international standard', 'config_control_design', 1994, #92 ) ;
#114 = APPROVAL_ROLE ( '' ) ;
#115 = CARTESIAN_POINT ( 'NONE',  ( 0.0000000000000000000, 0.0000000000000000000, -1.500000000000000000 ) ) ;
#116 = DIRECTION ( 'NONE',  ( 1.000000000000000000, 0.0000000000000000000, 0.0000000000000000000 ) ) ;
#117 = DATE_AND_TIME ( #3, #83 ) ;
#118 = EDGE_LOOP ( 'NONE', ( #157, #13 ) ) ;
#119 = CC_DESIGN_PERSON_AND_ORGANIZATION_ASSIGNMENT ( #107, #124, ( #25 ) ) ;
#120 = PERSON_AND_ORGANIZATION ( #99, #28 ) ;
#121 = FACE_OUTER_BOUND ( 'NONE', #31, .T. ) ;
#122 = APPROVAL_STATUS ( 'not_yet_approved' ) ;
#123 = COORDINATED_UNIVERSAL_TIME_OFFSET ( 5, 0, .BEHIND. ) ;
#124 = PERSON_AND_ORGANIZATION_ROLE ( 'classification_officer' ) ;
#125 = PERSON_AND_ORGANIZATION_ROLE ( 'design_supplier' ) ;
#126 = CALENDAR_DATE ( 2020, 7, 10 ) ;
#127 = VERTEX_POINT ( 'NONE', #137 ) ;
#128 = LOCAL_TIME ( 13, 19, 10.00000000000000000, #89 ) ;
#129 = ORIENTED_EDGE ( 'NONE', *, *, #29, .F. ) ;
#130 = EDGE_CURVE ( 'NONE', #154, #76, #48, .T. ) ;
#131 = ADVANCED_FACE ( 'NONE', ( #169 ), #44, .T. ) ;
#132 = ADVANCED_FACE ( 'NONE', ( #93 ), #152, .T. ) ;
#133 = CARTESIAN_POINT ( 'NONE',  ( 0.0000000000000000000, 0.0000000000000000000, 1.500000000000000000 ) ) ;
#134 = CC_DESIGN_APPROVAL ( #98, ( #88 ) ) ;
#135 = ORIENTED_EDGE ( 'NONE', *, *, #130, .F. ) ;
#136 = LOCAL_TIME ( 13, 19, 10.00000000000000000, #123 ) ;
#137 = CARTESIAN_POINT ( 'NONE',  ( 25.39999999999999858, 3.110602869834276865E-15, -1.500000000000000000 ) ) ;
#138 = AXIS2_PLACEMENT_3D ( 'NONE', #91, #7, #5 ) ;
#139 = CYLINDRICAL_SURFACE ( 'NONE', #163, 25.39999999999999858 ) ;
#140 = ORIENTED_EDGE ( 'NONE', *, *, #90, .T. ) ;
#141 = APPROVAL_PERSON_ORGANIZATION ( #11, #98, #114 ) ;
#142 = EDGE_LOOP ( 'NONE', ( #60, #105 ) ) ;
#143 = DIRECTION ( 'NONE',  ( 1.000000000000000000, 0.0000000000000000000, 0.0000000000000000000 ) ) ;
#144 = CARTESIAN_POINT ( 'NONE',  ( 25.39999999999999858, 3.110602869834276865E-15, 1.500000000000000000 ) ) ;
#145 = APPROVAL_ROLE ( '' ) ;
#146 = DESIGN_CONTEXT ( 'detailed design', #92, 'design' ) ;
#147 = CALENDAR_DATE ( 2020, 7, 10 ) ;
#148 = CC_DESIGN_PERSON_AND_ORGANIZATION_ASSIGNMENT ( #59, #171, ( #85 ) ) ;
#149 = CARTESIAN_POINT ( 'NONE',  ( 0.0000000000000000000, 0.0000000000000000000, 1.500000000000000000 ) ) ;
#150 = CIRCLE ( 'NONE', #63, 25.39999999999999858 ) ;
#151 = LOCAL_TIME ( 13, 19, 10.00000000000000000, #87 ) ;
#152 = PLANE ( 'NONE',  #30 ) ;
#153 = PERSON_AND_ORGANIZATION ( #99, #28 ) ;
#154 = VERTEX_POINT ( 'NONE', #74 ) ;
#155 = EDGE_CURVE ( 'NONE', #76, #127, #150, .T. ) ;
#156 = DATE_AND_TIME ( #18, #128 ) ;
#157 = ORIENTED_EDGE ( 'NONE', *, *, #57, .T. ) ;
#158 = CLOSED_SHELL ( 'NONE', ( #80, #131, #132, #108 ) ) ;
#159 = APPROVAL ( #122, 'UNSPECIFIED' ) ;
#160 = MECHANICAL_CONTEXT ( 'NONE', #49, 'mechanical' ) ;
#161 = APPLICATION_PROTOCOL_DEFINITION ( 'international standard', 'config_control_design', 1994, #49 ) ;
#162 = CARTESIAN_POINT ( 'NONE',  ( -25.39999999999999858, 0.0000000000000000000, -1.500000000000000000 ) ) ;
#163 = AXIS2_PLACEMENT_3D ( 'NONE', #133, #6, #78 ) ;
#164 = LOCAL_TIME ( 13, 19, 10.00000000000000000, #47 ) ;
#165 = SECURITY_CLASSIFICATION_LEVEL ( 'unclassified' ) ;
#166 = FACE_OUTER_BOUND ( 'NONE', #142, .T. ) ;
#167 = CALENDAR_DATE ( 2020, 7, 10 ) ;
#168 = CC_DESIGN_APPROVAL ( #159, ( #9 ) ) ;
#169 = FACE_OUTER_BOUND ( 'NONE', #40, .T. ) ;
#170 = COORDINATED_UNIVERSAL_TIME_OFFSET ( 5, 0, .BEHIND. ) ;
#171 = PERSON_AND_ORGANIZATION_ROLE ( 'design_owner' ) ;
#172 = CIRCLE ( 'NONE', #103, 25.39999999999999858 ) ;
#173 =( LENGTH_UNIT ( ) NAMED_UNIT ( * ) SI_UNIT ( .MILLI., .METRE. ) );
#174 = DATE_TIME_ROLE ( 'creation_date' ) ;
#175 = AXIS2_PLACEMENT_3D ( 'NONE', #21, #52, #81 ) ;
ENDSEC;
END-ISO-10303-21;
