ISO-10303-21;
HEADER;
FILE_DESCRIPTION (( 'STEP AP203' ),
    '1' );
FILE_NAME ('4220-E0W.STEP',
    '2015-11-16T21:54:25',
    ( 'admin' ),
    ( '' ),
    'SwSTEP 2.0',
    'SolidWorks 2014',
    '' );
FILE_SCHEMA (( 'CONFIG_CONTROL_DESIGN' ));
ENDSEC;

DATA;
#1 = PERSON_AND_ORGANIZATION ( #177, #67 ) ;
#2 = DIRECTION ( 'NONE',  ( -1.000000000000000000, -0.0000000000000000000, -0.0000000000000000000 ) ) ;
#3 = EDGE_LOOP ( 'NONE', ( #113, #51, #335 ) ) ;
#4 = PERSON_AND_ORGANIZATION ( #177, #67 ) ;
#5 = DIRECTION ( 'NONE',  ( 0.0000000000000000000, 0.0000000000000000000, 1.000000000000000000 ) ) ;
#6 = ORIENTED_EDGE ( 'NONE', *, *, #200, .T. ) ;
#7 = CIRCLE ( 'NONE', #16, 2.228346456692913400 ) ;
#8 = ORIENTED_EDGE ( 'NONE', *, *, #257, .F. ) ;
#9 = DIRECTION ( 'NONE',  ( 0.0000000000000000000, 0.0000000000000000000, 1.000000000000000000 ) ) ;
#10 = AXIS2_PLACEMENT_3D ( 'NONE', #60, #195, #253 ) ;
#11 = ORIENTED_EDGE ( 'NONE', *, *, #270, .F. ) ;
#12 = CIRCLE ( 'NONE', #131, 0.5000000000000000000 ) ;
#13 = ORIENTED_EDGE ( 'NONE', *, *, #156, .T. ) ;
#14 = CARTESIAN_POINT ( 'NONE',  ( 2.297244094488189300, 0.0000000000000000000, 0.0000000000000000000 ) ) ;
#15 = ADVANCED_FACE ( 'NONE', ( #330 ), #312, .T. ) ;
#16 = AXIS2_PLACEMENT_3D ( 'NONE', #125, #290, #75 ) ;
#17 = VECTOR ( 'NONE', #208, 39.37007874015748900 ) ;
#18 = VERTEX_POINT ( 'NONE', #223 ) ;
#19 = SHAPE_DEFINITION_REPRESENTATION ( #61, #281 ) ;
#20 = FACE_OUTER_BOUND ( 'NONE', #294, .T. ) ;
#21 = EDGE_LOOP ( 'NONE', ( #284, #196, #189, #174 ) ) ;
#22 = CARTESIAN_POINT ( 'NONE',  ( 0.1241267010019929100, 0.4930402875867470600, -3.382501905809578500E-015 ) ) ;
#23 = UNCERTAINTY_MEASURE_WITH_UNIT (LENGTH_MEASURE( 1.000000000000000100E-005 ), #35, 'distance_accuracy_value', 'NONE');
#24 = VERTEX_POINT ( 'NONE', #57 ) ;
#25 = VERTEX_POINT ( 'NONE', #225 ) ;
#26 = AXIS2_PLACEMENT_3D ( 'NONE', #159, #219, #158 ) ;
#27 = VERTEX_POINT ( 'NONE', #86 ) ;
#28 = CC_DESIGN_APPROVAL ( #316, ( #149 ) ) ;
#29 = AXIS2_PLACEMENT_3D ( 'NONE', #187, #109, #321 ) ;
#30 = DESIGN_CONTEXT ( 'detailed design', #304, 'design' ) ;
#31 = ORIENTED_EDGE ( 'NONE', *, *, #211, .F. ) ;
#32 = CC_DESIGN_APPROVAL ( #226, ( #251 ) ) ;
#33 = LINE ( 'NONE', #334, #298 ) ;
#34 = ADVANCED_FACE ( 'NONE', ( #215 ), #322, .T. ) ;
#35 =( CONVERSION_BASED_UNIT ( 'INCH', #191 ) LENGTH_UNIT ( ) NAMED_UNIT ( #287 ) );
#36 = EDGE_CURVE ( 'NONE', #27, #271, #101, .T. ) ;
#37 = DIRECTION ( 'NONE',  ( 0.0000000000000000000, 6.982962677686266700E-015, 1.000000000000000000 ) ) ;
#38 = SPHERICAL_SURFACE ( 'NONE', #110, 2.228346456692913400 ) ;
#39 = DIRECTION ( 'NONE',  ( 0.0000000000000000000, 0.0000000000000000000, 1.000000000000000000 ) ) ;
#40 = CIRCLE ( 'NONE', #327, 0.4930402875867466700 ) ;
#41 = PERSON_AND_ORGANIZATION ( #177, #67 ) ;
#42 = ORIENTED_EDGE ( 'NONE', *, *, #343, .F. ) ;
#43 = CC_DESIGN_DATE_AND_TIME_ASSIGNMENT ( #100, #186, ( #244 ) ) ;
#44 = CONICAL_SURFACE ( 'NONE', #194, 0.4930402875867466700, 0.7853981633974311800 ) ;
#45 = DIRECTION ( 'NONE',  ( 0.0000000000000000000, 0.0000000000000000000, 1.000000000000000000 ) ) ;
#46 = DIRECTION ( 'NONE',  ( 0.0000000000000000000, -1.000000000000000000, 6.982962677686266700E-015 ) ) ;
#47 = DIRECTION ( 'NONE',  ( 0.0000000000000000000, 0.0000000000000000000, 1.000000000000000000 ) ) ;
#48 = AXIS2_PLACEMENT_3D ( 'NONE', #252, #235, #142 ) ;
#49 = DIRECTION ( 'NONE',  ( -1.000000000000000000, -0.0000000000000000000, -0.0000000000000000000 ) ) ;
#50 = CARTESIAN_POINT ( 'NONE',  ( 0.1241267010019927900, 1.265629073921969200E-017, 0.0000000000000000000 ) ) ;
#51 = ORIENTED_EDGE ( 'NONE', *, *, #94, .T. ) ;
#52 = CIRCLE ( 'NONE', #85, 0.4930402875867466700 ) ;
#53 = DATE_AND_TIME ( #333, #347 ) ;
#54 = DIRECTION ( 'NONE',  ( 0.0000000000000000000, 6.982962677686266700E-015, 1.000000000000000000 ) ) ;
#55 = DIRECTION ( 'NONE',  ( 0.0000000000000000000, 0.0000000000000000000, 1.000000000000000000 ) ) ;
#56 = ORIENTED_EDGE ( 'NONE', *, *, #181, .F. ) ;
#57 = CARTESIAN_POINT ( 'NONE',  ( 0.1171669885887391400, 1.265629073921969200E-017, 0.5000000000000001100 ) ) ;
#58 = AXIS2_PLACEMENT_3D ( 'NONE', #237, #118, #336 ) ;
#59 = APPLICATION_PROTOCOL_DEFINITION ( 'international standard', 'config_control_design', 1994, #185 ) ;
#60 = CARTESIAN_POINT ( 'NONE',  ( 5.836491815462282200, 1.280553747030123400E-017, 0.0000000000000000000 ) ) ;
#61 = PRODUCT_DEFINITION_SHAPE ( 'NONE', 'NONE',  #149 ) ;
#62 = DIRECTION ( 'NONE',  ( -1.000000000000000000, -0.0000000000000000000, -0.0000000000000000000 ) ) ;
#63 = DIRECTION ( 'NONE',  ( -1.000000000000000000, -0.0000000000000000000, -0.0000000000000000000 ) ) ;
#64 = CALENDAR_DATE ( 2015, 16, 11 ) ;
#65 = ORIENTED_EDGE ( 'NONE', *, *, #204, .T. ) ;
#66 = CARTESIAN_POINT ( 'NONE',  ( 0.1241267010019929100, -0.4930402875867470600, 3.442881926813958500E-015 ) ) ;
#67 = ORGANIZATION ( 'UNSPECIFIED', 'UNSPECIFIED', '' ) ;
#68 = CARTESIAN_POINT ( 'NONE',  ( -0.04450413776585631500, 1.265629073921969200E-017, 0.0000000000000000000 ) ) ;
#69 = PERSON_AND_ORGANIZATION ( #177, #67 ) ;
#70 = ORIENTED_EDGE ( 'NONE', *, *, #254, .F. ) ;
#71 = CARTESIAN_POINT ( 'NONE',  ( 0.1171669885887391400, 1.265629073921969200E-017, 0.0000000000000000000 ) ) ;
#72 = PERSON_AND_ORGANIZATION_ROLE ( 'creator' ) ;
#73 = ORIENTED_EDGE ( 'NONE', *, *, #200, .F. ) ;
#74 = LINE ( 'NONE', #176, #162 ) ;
#75 = DIRECTION ( 'NONE',  ( 0.0000000000000000000, -1.000000000000000000, 6.860497997771532400E-015 ) ) ;
#76 = FACE_OUTER_BOUND ( 'NONE', #21, .T. ) ;
#77 = VERTEX_POINT ( 'NONE', #311 ) ;
#78 = EDGE_CURVE ( 'NONE', #326, #25, #135, .T. ) ;
#79 = PRODUCT_RELATED_PRODUCT_CATEGORY ( 'detail', '', ( #273 ) ) ;
#80 = AXIS2_PLACEMENT_3D ( 'NONE', #202, #108, #96 ) ;
#81 = APPROVAL_ROLE ( '' ) ;
#82 =( GEOMETRIC_REPRESENTATION_CONTEXT ( 3 ) GLOBAL_UNCERTAINTY_ASSIGNED_CONTEXT ( ( #23 ) ) GLOBAL_UNIT_ASSIGNED_CONTEXT ( ( #35, #103, #241 ) ) REPRESENTATION_CONTEXT ( 'NONE', 'WORKASPACE' ) );
#83 = SECURITY_CLASSIFICATION_LEVEL ( 'unclassified' ) ;
#84 = CARTESIAN_POINT ( 'NONE',  ( -0.06889763779527559300, -1.265629073921969200E-017, 8.837840586991745400E-032 ) ) ;
#85 = AXIS2_PLACEMENT_3D ( 'NONE', #50, #49, #47 ) ;
#86 = CARTESIAN_POINT ( 'NONE',  ( 0.1241267010019927900, 7.346247122009350700E-017, -0.4930402875867466700 ) ) ;
#87 = ORIENTED_EDGE ( 'NONE', *, *, #78, .T. ) ;
#88 = CARTESIAN_POINT ( 'NONE',  ( 5.836491815462282200, 1.746105687144528100E-017, -0.03801520082676408700 ) ) ;
#89 = DIRECTION ( 'NONE',  ( 0.0000000000000000000, -1.000000000000000000, 0.0000000000000000000 ) ) ;
#90 = DATE_AND_TIME ( #64, #183 ) ;
#91 = ORIENTED_EDGE ( 'NONE', *, *, #181, .T. ) ;
#92 = MANIFOLD_SOLID_BREP ( '4220-001-1-solid1', #111 ) ;
#93 = ADVANCED_FACE ( 'NONE', ( #20 ), #44, .T. ) ;
#94 = EDGE_CURVE ( 'NONE', #25, #326, #170, .T. ) ;
#95 = APPROVAL_PERSON_ORGANIZATION ( #307, #316, #303 ) ;
#96 = DIRECTION ( 'NONE',  ( 0.0000000000000000000, 1.000000000000000000, -6.982962677686265900E-015 ) ) ;
#97 = AXIS2_PLACEMENT_3D ( 'NONE', #155, #127, #180 ) ;
#98 = APPROVAL_STATUS ( 'not_yet_approved' ) ;
#99 = ORIENTED_EDGE ( 'NONE', *, *, #102, .F. ) ;
#100 = DATE_AND_TIME ( #157, #266 ) ;
#101 = CIRCLE ( 'NONE', #116, 0.4930402875867466700 ) ;
#102 = EDGE_CURVE ( 'NONE', #240, #77, #74, .T. ) ;
#103 =( NAMED_UNIT ( * ) PLANE_ANGLE_UNIT ( ) SI_UNIT ( $, .RADIAN. ) );
#104 = CARTESIAN_POINT ( 'NONE',  ( 0.1241267010019927900, 1.265629073921969200E-017, 0.4930402875867466700 ) ) ;
#105 = CC_DESIGN_SECURITY_CLASSIFICATION ( #244, ( #251 ) ) ;
#106 = CALENDAR_DATE ( 2015, 16, 11 ) ;
#107 = ORIENTED_EDGE ( 'NONE', *, *, #122, .T. ) ;
#108 = DIRECTION ( 'NONE',  ( 0.0000000000000000000, -6.982962677686266700E-015, -1.000000000000000000 ) ) ;
#109 = DIRECTION ( 'NONE',  ( 1.000000000000000000, 0.0000000000000000000, 0.0000000000000000000 ) ) ;
#110 = AXIS2_PLACEMENT_3D ( 'NONE', #14, #37, #46 ) ;
#111 = CLOSED_SHELL ( 'NONE', ( #344, #15, #34, #154, #184, #128, #233, #286, #93, #262 ) ) ;
#112 = DIRECTION ( 'NONE',  ( 0.0000000000000000000, 0.0000000000000000000, 1.000000000000000000 ) ) ;
#113 = ORIENTED_EDGE ( 'NONE', *, *, #222, .F. ) ;
#114 = DIRECTION ( 'NONE',  ( -1.000000000000000000, -0.0000000000000000000, -0.0000000000000000000 ) ) ;
#115 = LINE ( 'NONE', #289, #151 ) ;
#116 = AXIS2_PLACEMENT_3D ( 'NONE', #261, #277, #141 ) ;
#117 = APPROVAL_DATE_TIME ( #53, #163 ) ;
#118 = DIRECTION ( 'NONE',  ( -1.000000000000000000, -0.0000000000000000000, -0.0000000000000000000 ) ) ;
#119 = DIRECTION ( 'NONE',  ( -1.000000000000000000, -0.0000000000000000000, -0.0000000000000000000 ) ) ;
#120 = ORIENTED_EDGE ( 'NONE', *, *, #143, .F. ) ;
#121 = DATE_AND_TIME ( #258, #285 ) ;
#122 = EDGE_CURVE ( 'NONE', #24, #152, #153, .T. ) ;
#123 = CIRCLE ( 'NONE', #80, 2.228346456692913400 ) ;
#124 = ORIENTED_EDGE ( 'NONE', *, *, #257, .T. ) ;
#125 = CARTESIAN_POINT ( 'NONE',  ( 2.297244094488189300, 0.0000000000000000000, 0.0000000000000000000 ) ) ;
#126 = DIRECTION ( 'NONE',  ( -1.000000000000000000, -0.0000000000000000000, -0.0000000000000000000 ) ) ;
#127 = DIRECTION ( 'NONE',  ( -1.000000000000000000, -0.0000000000000000000, -0.0000000000000000000 ) ) ;
#128 = ADVANCED_FACE ( 'NONE', ( #301 ), #212, .T. ) ;
#129 = VERTEX_POINT ( 'NONE', #104 ) ;
#130 = SPHERICAL_SURFACE ( 'NONE', #216, 2.228346456692913400 ) ;
#131 = AXIS2_PLACEMENT_3D ( 'NONE', #68, #126, #231 ) ;
#132 = APPLICATION_PROTOCOL_DEFINITION ( 'international standard', 'config_control_design', 1994, #304 ) ;
#133 =( LENGTH_UNIT ( ) NAMED_UNIT ( * ) SI_UNIT ( $, .METRE. ) );
#134 = CARTESIAN_POINT ( 'NONE',  ( -0.06889763779527559300, 1.265629073921969200E-017, 0.0000000000000000000 ) ) ;
#135 = CIRCLE ( 'NONE', #263, 0.4930402875867466200 ) ;
#136 = CARTESIAN_POINT ( 'NONE',  ( -0.05146385017910974600, 1.265629073921969200E-017, 0.0000000000000000000 ) ) ;
#137 = MECHANICAL_CONTEXT ( 'NONE', #185, 'mechanical' ) ;
#138 = AXIS2_PLACEMENT_3D ( 'NONE', #169, #345, #324 ) ;
#139 = APPROVAL_STATUS ( 'not_yet_approved' ) ;
#140 = CARTESIAN_POINT ( 'NONE',  ( -0.04450413776585631500, 7.388863069658735600E-017, 0.5000000000000000000 ) ) ;
#141 = DIRECTION ( 'NONE',  ( 0.0000000000000000000, 0.0000000000000000000, 1.000000000000000000 ) ) ;
#142 = DIRECTION ( 'NONE',  ( 1.000000000000000000, 0.0000000000000000000, 0.0000000000000000000 ) ) ;
#143 = EDGE_CURVE ( 'NONE', #27, #240, #166, .T. ) ;
#144 = ORIENTED_EDGE ( 'NONE', *, *, #78, .F. ) ;
#145 = CONICAL_SURFACE ( 'NONE', #29, 0.5000000000000000000, 0.7853981633974458400 ) ;
#146 = CC_DESIGN_APPROVAL ( #163, ( #244 ) ) ;
#147 = AXIS2_PLACEMENT_3D ( 'NONE', #136, #63, #39 ) ;
#148 = APPROVAL_PERSON_ORGANIZATION ( #4, #163, #81 ) ;
#149 = PRODUCT_DEFINITION ( 'UNKNOWN', '', #251, #30 ) ;
#150 = DIRECTION ( 'NONE',  ( 0.0000000000000000000, -1.000000000000000000, 6.982962677686266700E-015 ) ) ;
#151 = VECTOR ( 'NONE', #178, 39.37007874015748100 ) ;
#152 = VERTEX_POINT ( 'NONE', #140 ) ;
#153 = LINE ( 'NONE', #232, #348 ) ;
#154 = ADVANCED_FACE ( 'NONE', ( #205 ), #278, .T. ) ;
#155 = CARTESIAN_POINT ( 'NONE',  ( 5.836491815462282200, 1.280553747030123400E-017, 0.0000000000000000000 ) ) ;
#156 = EDGE_CURVE ( 'NONE', #271, #18, #123, .T. ) ;
#157 = CALENDAR_DATE ( 2015, 16, 11 ) ;
#158 = DIRECTION ( 'NONE',  ( 0.0000000000000000000, 0.0000000000000000000, 1.000000000000000000 ) ) ;
#159 = CARTESIAN_POINT ( 'NONE',  ( 0.1171669885887391400, 1.265629073921969200E-017, 0.0000000000000000000 ) ) ;
#160 = CC_DESIGN_PERSON_AND_ORGANIZATION_ASSIGNMENT ( #1, #182, ( #251 ) ) ;
#161 = ORIENTED_EDGE ( 'NONE', *, *, #36, .F. ) ;
#162 = VECTOR ( 'NONE', #2, 39.37007874015748100 ) ;
#163 = APPROVAL ( #98, 'UNSPECIFIED' ) ;
#164 = DIRECTION ( 'NONE',  ( 0.0000000000000000000, -1.224646799147353200E-016, 1.000000000000000000 ) ) ;
#165 = AXIS2_PLACEMENT_3D ( 'NONE', #328, #332, #45 ) ;
#166 = LINE ( 'NONE', #255, #17 ) ;
#167 = ORIENTED_EDGE ( 'NONE', *, *, #211, .T. ) ;
#168 = FACE_OUTER_BOUND ( 'NONE', #350, .T. ) ;
#169 = CARTESIAN_POINT ( 'NONE',  ( -0.04450413776585631500, 1.265629073921969200E-017, 0.0000000000000000000 ) ) ;
#170 = CIRCLE ( 'NONE', #147, 0.4930402875867466200 ) ;
#171 = CC_DESIGN_PERSON_AND_ORGANIZATION_ASSIGNMENT ( #279, #268, ( #251 ) ) ;
#172 = APPROVAL_PERSON_ORGANIZATION ( #41, #226, #192 ) ;
#173 = CARTESIAN_POINT ( 'NONE',  ( 2.297244094488189300, 0.0000000000000000000, 0.0000000000000000000 ) ) ;
#174 = ORIENTED_EDGE ( 'NONE', *, *, #270, .T. ) ;
#175 = AXIS2_PLACEMENT_3D ( 'NONE', #134, #243, #5 ) ;
#176 = CARTESIAN_POINT ( 'NONE',  ( -0.06889763779527559300, 7.388863069658735600E-017, -0.5000000000000000000 ) ) ;
#177 = PERSON ( 'UNSPECIFIED', 'UNSPECIFIED', 'UNSPECIFIED', ('UNSPECIFIED'), ('UNSPECIFIED'), ('UNSPECIFIED') ) ;
#178 = DIRECTION ( 'NONE',  ( 0.7071067811865492400, 0.0000000000000000000, -0.7071067811865458000 ) ) ;
#179 = DIRECTION ( 'NONE',  ( -1.000000000000000000, -0.0000000000000000000, -0.0000000000000000000 ) ) ;
#180 = DIRECTION ( 'NONE',  ( 0.0000000000000000000, 0.0000000000000000000, 1.000000000000000000 ) ) ;
#181 = EDGE_CURVE ( 'NONE', #152, #77, #259, .T. ) ;
#182 = PERSON_AND_ORGANIZATION_ROLE ( 'creator' ) ;
#183 = LOCAL_TIME ( 16, 54, 25.00000000000000000, #349 ) ;
#184 = ADVANCED_FACE ( 'NONE', ( #291 ), #217, .T. ) ;
#185 = APPLICATION_CONTEXT ( 'configuration controlled 3d designs of mechanical parts and assemblies' ) ;
#186 = DATE_TIME_ROLE ( 'classification_date' ) ;
#187 = CARTESIAN_POINT ( 'NONE',  ( -0.04450413776585631500, 1.265629073921969200E-017, 0.0000000000000000000 ) ) ;
#188 = AXIS2_PLACEMENT_3D ( 'NONE', #288, #89, #203 ) ;
#189 = ORIENTED_EDGE ( 'NONE', *, *, #214, .T. ) ;
#190 = CARTESIAN_POINT ( 'NONE',  ( 0.1241267010019927900, 1.265629073921969200E-017, 0.0000000000000000000 ) ) ;
#191 = LENGTH_MEASURE_WITH_UNIT ( LENGTH_MEASURE( 0.02539999999999999900 ), #133 );
#192 = APPROVAL_ROLE ( '' ) ;
#193 = CARTESIAN_POINT ( 'NONE',  ( 0.1241267010019927900, 1.265629073921969200E-017, 0.0000000000000000000 ) ) ;
#194 = AXIS2_PLACEMENT_3D ( 'NONE', #337, #62, #55 ) ;
#195 = DIRECTION ( 'NONE',  ( -1.000000000000000000, -0.0000000000000000000, -0.0000000000000000000 ) ) ;
#196 = ORIENTED_EDGE ( 'NONE', *, *, #94, .F. ) ;
#197 = VECTOR ( 'NONE', #319, 39.37007874015748900 ) ;
#198 = CC_DESIGN_DATE_AND_TIME_ASSIGNMENT ( #90, #341, ( #149 ) ) ;
#199 = DIRECTION ( 'NONE',  ( 0.0000000000000000000, 0.0000000000000000000, 1.000000000000000000 ) ) ;
#200 = EDGE_CURVE ( 'NONE', #240, #24, #224, .T. ) ;
#201 = ORIENTED_EDGE ( 'NONE', *, *, #283, .T. ) ;
#202 = CARTESIAN_POINT ( 'NONE',  ( 2.297244094488189300, 0.0000000000000000000, 0.0000000000000000000 ) ) ;
#203 = DIRECTION ( 'NONE',  ( 0.0000000000000000000, 0.0000000000000000000, -1.000000000000000000 ) ) ;
#204 = EDGE_CURVE ( 'NONE', #24, #240, #340, .T. ) ;
#205 = FACE_OUTER_BOUND ( 'NONE', #342, .T. ) ;
#206 = APPROVAL_DATE_TIME ( #269, #316 ) ;
#207 = ORIENTED_EDGE ( 'NONE', *, *, #156, .F. ) ;
#208 = DIRECTION ( 'NONE',  ( -0.7071067811865595600, 8.659560562354783700E-017, -0.7071067811865353600 ) ) ;
#209 = CARTESIAN_POINT ( 'NONE',  ( 0.1171669885887391400, 7.388863069658736800E-017, -0.5000000000000001100 ) ) ;
#210 = DIRECTION ( 'NONE',  ( 0.0000000000000000000, 0.0000000000000000000, 1.000000000000000000 ) ) ;
#211 = EDGE_CURVE ( 'NONE', #129, #234, #40, .T. ) ;
#212 = TOROIDAL_SURFACE ( 'NONE', #97, 0.03801520082676408700, 5.905511811023623100 ) ;
#213 = ORIENTED_EDGE ( 'NONE', *, *, #283, .F. ) ;
#214 = EDGE_CURVE ( 'NONE', #25, #77, #115, .T. ) ;
#215 = FACE_OUTER_BOUND ( 'NONE', #299, .T. ) ;
#216 = AXIS2_PLACEMENT_3D ( 'NONE', #173, #54, #150 ) ;
#217 = TOROIDAL_SURFACE ( 'NONE', #10, 0.03801520082676408700, 5.905511811023623100 ) ;
#218 = ORIENTED_EDGE ( 'NONE', *, *, #254, .T. ) ;
#219 = DIRECTION ( 'NONE',  ( -1.000000000000000000, -0.0000000000000000000, -0.0000000000000000000 ) ) ;
#220 = ORIENTED_EDGE ( 'NONE', *, *, #204, .F. ) ;
#221 = CC_DESIGN_PERSON_AND_ORGANIZATION_ASSIGNMENT ( #302, #329, ( #244 ) ) ;
#222 = EDGE_CURVE ( 'NONE', #25, #293, #267, .T. ) ;
#223 = CARTESIAN_POINT ( 'NONE',  ( 0.06889763779527564900, -1.364468677790161300E-016, 9.528033851880625700E-031 ) ) ;
#224 = CIRCLE ( 'NONE', #26, 0.5000000000000001100 ) ;
#225 = CARTESIAN_POINT ( 'NONE',  ( -0.05146385017910977400, 7.318555847468186000E-017, -0.4930402875867520600 ) ) ;
#226 = APPROVAL ( #139, 'UNSPECIFIED' ) ;
#227 = EDGE_LOOP ( 'NONE', ( #167, #124, #308, #220, #42 ) ) ;
#228 = ORIENTED_EDGE ( 'NONE', *, *, #122, .F. ) ;
#229 = EDGE_CURVE ( 'NONE', #326, #152, #33, .T. ) ;
#230 = COORDINATED_UNIVERSAL_TIME_OFFSET ( 5, 0, .BEHIND. ) ;
#231 = DIRECTION ( 'NONE',  ( 0.0000000000000000000, 0.0000000000000000000, 1.000000000000000000 ) ) ;
#232 = CARTESIAN_POINT ( 'NONE',  ( -0.06889763779527559300, 1.265629073921969200E-017, 0.5000000000000000000 ) ) ;
#233 = ADVANCED_FACE ( 'NONE', ( #76 ), #145, .T. ) ;
#234 = VERTEX_POINT ( 'NONE', #22 ) ;
#235 = DIRECTION ( 'NONE',  ( 0.0000000000000000000, 0.0000000000000000000, 1.000000000000000000 ) ) ;
#236 = CARTESIAN_POINT ( 'NONE',  ( -0.05146385017910974600, 1.265629073921969200E-017, 0.0000000000000000000 ) ) ;
#237 = CARTESIAN_POINT ( 'NONE',  ( -0.04450413776585631500, 1.265629073921969200E-017, 0.0000000000000000000 ) ) ;
#238 = APPROVAL_STATUS ( 'not_yet_approved' ) ;
#239 = AXIS2_PLACEMENT_3D ( 'NONE', #88, #318, #164 ) ;
#240 = VERTEX_POINT ( 'NONE', #209 ) ;
#241 =( NAMED_UNIT ( * ) SI_UNIT ( $, .STERADIAN. ) SOLID_ANGLE_UNIT ( ) );
#242 = EDGE_LOOP ( 'NONE', ( #99, #6, #107, #11 ) ) ;
#243 = DIRECTION ( 'NONE',  ( -1.000000000000000000, -0.0000000000000000000, -0.0000000000000000000 ) ) ;
#244 = SECURITY_CLASSIFICATION ( '', '', #83 ) ;
#245 = LOCAL_TIME ( 16, 54, 25.00000000000000000, #272 ) ;
#246 = ORIENTED_EDGE ( 'NONE', *, *, #36, .T. ) ;
#247 = CARTESIAN_POINT ( 'NONE',  ( -0.05146385017910977400, 1.280553747030123400E-017, 0.4930402875867520600 ) ) ;
#248 = AXIS2_PLACEMENT_3D ( 'NONE', #190, #119, #199 ) ;
#249 = CARTESIAN_POINT ( 'NONE',  ( 0.1241267010019927900, 1.265629073921969200E-017, 0.4930402875867466700 ) ) ;
#250 = ORIENTED_EDGE ( 'NONE', *, *, #222, .T. ) ;
#251 = PRODUCT_DEFINITION_FORMATION_WITH_SPECIFIED_SOURCE ( 'ANY', '', #273, .NOT_KNOWN. ) ;
#252 = CARTESIAN_POINT ( 'NONE',  ( 0.0000000000000000000, 0.0000000000000000000, 0.0000000000000000000 ) ) ;
#253 = DIRECTION ( 'NONE',  ( 0.0000000000000000000, 0.0000000000000000000, 1.000000000000000000 ) ) ;
#254 = EDGE_CURVE ( 'NONE', #234, #18, #7, .T. ) ;
#255 = CARTESIAN_POINT ( 'NONE',  ( 0.1241267010019927900, 7.303631174359967100E-017, -0.4930402875867466700 ) ) ;
#256 = EDGE_LOOP ( 'NONE', ( #87, #250, #260 ) ) ;
#257 = EDGE_CURVE ( 'NONE', #234, #27, #52, .T. ) ;
#258 = CALENDAR_DATE ( 2015, 16, 11 ) ;
#259 = CIRCLE ( 'NONE', #58, 0.5000000000000000000 ) ;
#260 = ORIENTED_EDGE ( 'NONE', *, *, #309, .F. ) ;
#261 = CARTESIAN_POINT ( 'NONE',  ( 0.1241267010019927900, 1.265629073921969200E-017, 0.0000000000000000000 ) ) ;
#262 = ADVANCED_FACE ( 'NONE', ( #310 ), #38, .F. ) ;
#263 = AXIS2_PLACEMENT_3D ( 'NONE', #236, #297, #210 ) ;
#264 = CIRCLE ( 'NONE', #188, 5.905511811023623100 ) ;
#265 = COORDINATED_UNIVERSAL_TIME_OFFSET ( 5, 0, .BEHIND. ) ;
#266 = LOCAL_TIME ( 16, 54, 25.00000000000000000, #313 ) ;
#267 = CIRCLE ( 'NONE', #239, 5.905511811023623100 ) ;
#268 = PERSON_AND_ORGANIZATION_ROLE ( 'design_supplier' ) ;
#269 = DATE_AND_TIME ( #106, #245 ) ;
#270 = EDGE_CURVE ( 'NONE', #77, #152, #12, .T. ) ;
#271 = VERTEX_POINT ( 'NONE', #66 ) ;
#272 = COORDINATED_UNIVERSAL_TIME_OFFSET ( 5, 0, .BEHIND. ) ;
#273 = PRODUCT ( '4220-E0W', '4220-E0W', '', ( #137 ) ) ;
#274 = DIRECTION ( 'NONE',  ( 0.7071067811865492400, 8.659560562354911900E-017, 0.7071067811865458000 ) ) ;
#275 = AXIS2_PLACEMENT_3D ( 'NONE', #325, #114, #323 ) ;
#276 = DIRECTION ( 'NONE',  ( -1.000000000000000000, -0.0000000000000000000, -0.0000000000000000000 ) ) ;
#277 = DIRECTION ( 'NONE',  ( -1.000000000000000000, -0.0000000000000000000, -0.0000000000000000000 ) ) ;
#278 = CONICAL_SURFACE ( 'NONE', #138, 0.5000000000000000000, 0.7853981633974458400 ) ;
#279 = PERSON_AND_ORGANIZATION ( #177, #67 ) ;
#280 = ORIENTED_EDGE ( 'NONE', *, *, #343, .T. ) ;
#281 = ADVANCED_BREP_SHAPE_REPRESENTATION ( '4220-E0W', ( #92, #48 ), #82 ) ;
#282 = CYLINDRICAL_SURFACE ( 'NONE', #275, 0.5000000000000000000 ) ;
#283 = EDGE_CURVE ( 'NONE', #271, #129, #300, .T. ) ;
#284 = ORIENTED_EDGE ( 'NONE', *, *, #229, .F. ) ;
#285 = LOCAL_TIME ( 16, 54, 25.00000000000000000, #230 ) ;
#286 = ADVANCED_FACE ( 'NONE', ( #331 ), #282, .T. ) ;
#287 = DIMENSIONAL_EXPONENTS ( 1.000000000000000000, 0.0000000000000000000, 0.0000000000000000000, 0.0000000000000000000, 0.0000000000000000000, 0.0000000000000000000, 0.0000000000000000000 ) ;
#288 = CARTESIAN_POINT ( 'NONE',  ( 5.836491815462282200, 1.280553747030123400E-017, 0.03801520082676408700 ) ) ;
#289 = CARTESIAN_POINT ( 'NONE',  ( -0.04450413776585631500, 1.265629073921969200E-017, -0.5000000000000000000 ) ) ;
#290 = DIRECTION ( 'NONE',  ( -0.0000000000000000000, 6.860497997771531600E-015, 1.000000000000000000 ) ) ;
#291 = FACE_OUTER_BOUND ( 'NONE', #256, .T. ) ;
#292 = ORIENTED_EDGE ( 'NONE', *, *, #214, .F. ) ;
#293 = VERTEX_POINT ( 'NONE', #84 ) ;
#294 = EDGE_LOOP ( 'NONE', ( #120, #246, #201, #280, #73 ) ) ;
#295 = APPROVAL_DATE_TIME ( #121, #226 ) ;
#296 = CC_DESIGN_PERSON_AND_ORGANIZATION_ASSIGNMENT ( #315, #72, ( #149 ) ) ;
#297 = DIRECTION ( 'NONE',  ( -1.000000000000000000, -0.0000000000000000000, -0.0000000000000000000 ) ) ;
#298 = VECTOR ( 'NONE', #274, 39.37007874015748100 ) ;
#299 = EDGE_LOOP ( 'NONE', ( #65, #305, #56, #228 ) ) ;
#300 = CIRCLE ( 'NONE', #165, 0.4930402875867466700 ) ;
#301 = FACE_OUTER_BOUND ( 'NONE', #3, .T. ) ;
#302 = PERSON_AND_ORGANIZATION ( #177, #67 ) ;
#303 = APPROVAL_ROLE ( '' ) ;
#304 = APPLICATION_CONTEXT ( 'configuration controlled 3d designs of mechanical parts and assemblies' ) ;
#305 = ORIENTED_EDGE ( 'NONE', *, *, #102, .T. ) ;
#306 = AXIS2_PLACEMENT_3D ( 'NONE', #71, #317, #112 ) ;
#307 = PERSON_AND_ORGANIZATION ( #177, #67 ) ;
#308 = ORIENTED_EDGE ( 'NONE', *, *, #143, .T. ) ;
#309 = EDGE_CURVE ( 'NONE', #326, #293, #264, .T. ) ;
#310 = FACE_OUTER_BOUND ( 'NONE', #346, .T. ) ;
#311 = CARTESIAN_POINT ( 'NONE',  ( -0.04450413776585631500, 1.265629073921969200E-017, -0.5000000000000000000 ) ) ;
#312 = CONICAL_SURFACE ( 'NONE', #248, 0.4930402875867466700, 0.7853981633974311800 ) ;
#313 = COORDINATED_UNIVERSAL_TIME_OFFSET ( 5, 0, .BEHIND. ) ;
#314 = PERSON_AND_ORGANIZATION_ROLE ( 'design_owner' ) ;
#315 = PERSON_AND_ORGANIZATION ( #177, #67 ) ;
#316 = APPROVAL ( #238, 'UNSPECIFIED' ) ;
#317 = DIRECTION ( 'NONE',  ( -1.000000000000000000, -0.0000000000000000000, -0.0000000000000000000 ) ) ;
#318 = DIRECTION ( 'NONE',  ( -0.0000000000000000000, 1.000000000000000000, 1.224646799147353200E-016 ) ) ;
#319 = DIRECTION ( 'NONE',  ( -0.7071067811865595600, 0.0000000000000000000, 0.7071067811865353600 ) ) ;
#320 = LINE ( 'NONE', #249, #197 ) ;
#321 = DIRECTION ( 'NONE',  ( 0.0000000000000000000, 0.0000000000000000000, -1.000000000000000000 ) ) ;
#322 = CYLINDRICAL_SURFACE ( 'NONE', #175, 0.5000000000000000000 ) ;
#323 = DIRECTION ( 'NONE',  ( 0.0000000000000000000, 0.0000000000000000000, 1.000000000000000000 ) ) ;
#324 = DIRECTION ( 'NONE',  ( 0.0000000000000000000, 0.0000000000000000000, -1.000000000000000000 ) ) ;
#325 = CARTESIAN_POINT ( 'NONE',  ( -0.06889763779527559300, 1.265629073921969200E-017, 0.0000000000000000000 ) ) ;
#326 = VERTEX_POINT ( 'NONE', #247 ) ;
#327 = AXIS2_PLACEMENT_3D ( 'NONE', #193, #276, #9 ) ;
#328 = CARTESIAN_POINT ( 'NONE',  ( 0.1241267010019927900, 1.265629073921969200E-017, 0.0000000000000000000 ) ) ;
#329 = PERSON_AND_ORGANIZATION_ROLE ( 'classification_officer' ) ;
#330 = FACE_OUTER_BOUND ( 'NONE', #227, .T. ) ;
#331 = FACE_OUTER_BOUND ( 'NONE', #242, .T. ) ;
#332 = DIRECTION ( 'NONE',  ( -1.000000000000000000, -0.0000000000000000000, -0.0000000000000000000 ) ) ;
#333 = CALENDAR_DATE ( 2015, 16, 11 ) ;
#334 = CARTESIAN_POINT ( 'NONE',  ( -0.04450413776585631500, 7.388863069658735600E-017, 0.5000000000000000000 ) ) ;
#335 = ORIENTED_EDGE ( 'NONE', *, *, #309, .T. ) ;
#336 = DIRECTION ( 'NONE',  ( 0.0000000000000000000, 0.0000000000000000000, 1.000000000000000000 ) ) ;
#337 = CARTESIAN_POINT ( 'NONE',  ( 0.1241267010019927900, 1.265629073921969200E-017, 0.0000000000000000000 ) ) ;
#338 = CC_DESIGN_PERSON_AND_ORGANIZATION_ASSIGNMENT ( #69, #314, ( #273 ) ) ;
#339 = ORIENTED_EDGE ( 'NONE', *, *, #229, .T. ) ;
#340 = CIRCLE ( 'NONE', #306, 0.5000000000000001100 ) ;
#341 = DATE_TIME_ROLE ( 'creation_date' ) ;
#342 = EDGE_LOOP ( 'NONE', ( #144, #339, #91, #292 ) ) ;
#343 = EDGE_CURVE ( 'NONE', #129, #24, #320, .T. ) ;
#344 = ADVANCED_FACE ( 'NONE', ( #168 ), #130, .F. ) ;
#345 = DIRECTION ( 'NONE',  ( 1.000000000000000000, 0.0000000000000000000, 0.0000000000000000000 ) ) ;
#346 = EDGE_LOOP ( 'NONE', ( #70, #31, #213, #13 ) ) ;
#347 = LOCAL_TIME ( 16, 54, 25.00000000000000000, #265 ) ;
#348 = VECTOR ( 'NONE', #179, 39.37007874015748100 ) ;
#349 = COORDINATED_UNIVERSAL_TIME_OFFSET ( 5, 0, .BEHIND. ) ;
#350 = EDGE_LOOP ( 'NONE', ( #8, #218, #207, #161 ) ) ;
ENDSEC;
END-ISO-10303-21;
